Cifra Club

Ghost Riders In The Sky

Spiderbait

Cifrado: Principal (guitarra y guitarra eléctrica)
Já pensou em usar uma coleção de roupas do Cifra Club? Responda as perguntas abaixo e nos ajude nessa missão! →
tono: G
Intro:
Em5
E|-----------------|
B|-----------------|
G|---/19-(19)------|
D|---/19-----------|
A|-----------------|
E|-----------------|


Em5                               G5
An old cowboy went riding out one dark and windy day
Em5
Upon a ridge he rested as he went along his way

When all at once a mighty herd of red eyed cows he saw
 C5                    G5                           Em5
A|-plowing through the ragged sky and up the cloudy draw

Em5                        G5
Their brands were still on fire and their hooves were made of steel
Em5
Their horns were black and shiny and their hot breath he could feel

A bolt of fear went through him as they thundered through the sky
C5                    G5                                      Em5
For he saw the Riders coming hard and he heard their mournful cry

          G5
Yippie yi yaaaaay
          Em5
Yippie yi Ohhhhh
C5           G5     Em5
Ghost Riders in the sky

          G5
Yippie yi yaaaaay
          Em5
Yippie yi Ohhhhh
C5           G5     Em5
Ghost Riders in the sky
Riff:
E|----------------------------------------------------------------|
B|----------------------------------------------------------------|
G|--------------------------------------------------2-4-444---4---|
D|----2-222-4-5-555-2-----------------2-222-4-5-555---------5-----|
A|--2-----------------5-555-2-5-----2-----------------------------|
E|----------------------------------------------------------------|

E|--------------------------------------------------------|
B|------5-5-555-------------------------------------------|
G|--4-4--------4-4-444------------------------------------|
D|---------------------5-2-----------5-555---4/5-222-0-2--|
A|--------------------------2-3-333-3---------------------|
E|--------------------------------------------------------|


Em5                                         G5
Their faces gaunt, their eyes were blurred, their shirts all soaked with sweat
Em5
He's riding hard to catch that herd, but he ain't caught 'em yet

'Cause they've got to ride forever on that range up in the sky
C5                 G5                              Em5
On horses snorting fire As they ride on hear their cry

Em5
As the riders loped on by him he heard one call his name
Em5
If you want to save your soul from Hell a-riding on our range

Then cowboy change your ways today or with us you will ride
C5                  G5                                 Em5
Trying to catch the Devil's herd, across these endless skies

          G5
Yippie yi yaaaaay
          Em5
Yippie yi Ohhhhh
C5           G5     Em5
Ghost Riders in the sky

          G5
Yippie yi yaaaaay
          Em5
Yippie yi Ohhhhh
C5           G5     Em5
Ghost Riders in the sky

Solo)

          G5
Yippie yi yaaaaay
          Em5
Yippie yi Ohhhhh
C5           G5     Em5
Ghost Riders in the sky

          G5
Yippie yi yaaaaay
          Em5
Yippie yi Ohhhhh
C5           G5     Em5
Ghost Riders in the sky

          G5
Yippie yi yaaaaay
          Em5
Yippie yi Ohhhhh
C5           G5      Em (clean)
Ghost Riders in the sky
Composición de Stan Jones
Colaboración y revisión:
  • Diego
426 vistas
    • ½ Tono
    • A
    • Bb
    • B
    • C
    • Db
    • D
    • Eb
    • E
    • F
    • F#
    • G
    • Ab
  • Agregar a la lista

    0 comentarios

    Ver todos los comentarios

    ¿Lograste tocar?

    5 Tocaron 0 Aún no

    ¡Graba un video tocando Ghost Riders In The Sky y envíanoslo!

    00:00 / 00:00
    Outros vídeos desta música
    Repetir Calidad Automático
    Outros vídeos desta música
    00:00 / 00:00
    Automático
    OK