Cifra Club

Dale Gracias

Spinetta Jade

Cifrado: Principal (guitarra y guitarra eléctrica)
tono: A
INTRO:
Empieza con una cadena dominantes
( acordes de 7ma con 5ta aumentada) todos  arpegiados , va así:

E|------6----6-----5-----5------4-----4-----3-------------|
B|-----6----6-----5-----5-----4------4-----3------7-------7-|
G|--5-----5-----3-----3-----3-----3------1-------6-------6--|
D|-----------------------------------------------6-------6---|
A|-5-----5-----4-----4----3------3------2-------------------|
E|--------------------------------------------6-------6---|

E|-------------------------------------------5--------|
B|-------------6--------5-----4----5-| 4---- -x--------
G|----------5---------4-------4--------------5--------|
D|-------4----------4---------4--------------4--------|
A|----------------------------4--------------5--------|
E|-----5-----------4----------4-----------------------|

Se repite una vez mas toda la secuencia
y se pasa a la 1era estrofa:

 Fmaj7                   Cdimm 5ta aum        D-7
Abre tus viejas cosas ….junta tu maquillaje  alguien se acerca

E|---8-----------------------------------------------5--|
B|--10--------------------------9--------------------6--|
G|---9--------------------------8--------------------5--|
D|--10--------------------------7--------------------7--|
A|---8-----------------------------------------------5--|
E|------------------------------8-----------------------|

E7 9 aum / 9 dism   A-7       E7 9 aum   A-7       E7 9aum
Cieeee….rra        los ojos , siéntate dale gracias por estar
E|-------------------------------------------------------|
B|---8----------6----------------8-------------------8---|
G|---7----------7-----5----------7---------5---------7---|
D|---6----------6-----5----------6---------5---------6---|
A|---7----------7----------------7-------------------7---|
E|--------------------5--------------------5-------------|
      A-7                    E7 9 aum           A-7 9
   Dale gracias          por estar        cerca de ti
E|-----------------------------------------------5--|
B|----------------------------8------------------5---|
G|-----5----------------------7------------------4----|
D|-----5----------------------6------------------5--|
A|----------------------------7--------------------|
E|-----5-----------------------------------------5--|

2da estrofa: los mismos acordes de la 1era

Sobre los viejos muebles...
prende otro cigarrillo
que esta poesía...
viene a buscarte...
nada más
dale gracias por estar...
dale gracias por estar...
cerca de ti...

Estribillo:
D-7 / D-7 13  G#dimm 5ta aum   A-7 5ta aum   Bdimm 5ta aum
Este ensueño   es un           silbido más....en el viento

E|---5---7/5---------------------------------------|
B|---6----6------5------------6-----------------8--|
G|---5----5------4------------5-----------------7--|
D|---7----7------3------------5-----------------6--|
A|----5---5----------------------------------------|
E|---------------4------------5-----------------7-|

Se repiten los mismos acordes:

Y un guerrero no detiene jamás….su marcha



Luego se hace la secuencia del intro de nuevo pero empieza
en el 4to traste :

E|--5----6----6-----5-----5------4-----4-----3-------------|
B|--5---6-----6-----5-----5-----4------4-----3----7-------7-|
G|-4---5-----5-----3-----3-----3-----3------1----6-------6--|
D|-----------------------------------------------6-------6--|
A 4---5-----5-----4-----4----3------3------2---------------
E|--------------------------------------------6-------6---|


(bis) empezando desde el A-75ta aum

Después viene un interludio…el cual todavía no lo saque bien…
si alguien ya saco esa parte, envíenme un mail con esos acordes
y así actualizo estas tablaturas



Acá esta la ultima parte….se repiten los acordes de las estrofas:
Puedes hallar la jungla...
entre estos edificios...
puedes rentarla...
o bien destruirla
y además...
dale gracias por estar...
por crecer y engendrar...
cerca del bien que gozaste
y además...
dale gracias al ángel...
dale gracias por estar...
cerca de ti...



Acá van las mismas notas del estribillo:

Es inútil que pretendas brillar...
con tu historia personal...
'recuerda que un guerrero no detiene jamás...
su marcha'...

y termina con un C#-7 5ta aum

E|-------5--------------------------------|
B|-----5----------------------------------|
G|----4-----------------------------------|
D|----------------------------------------|
A|---4------------------------------------|
E|----------------------------------------|
00:00 / 00:00
Otros videos de esta canción
Repetir
Otros videos de esta canción
Composición de Luis Alberto Spinetta
18 vistas
    • ½ Tono
    • A
    • Bb
    • B
    • C
    • Db
    • D
    • Eb
    • E
    • F
    • F#
    • G
    • Ab
  • Agregar a la lista

    0 comentarios

    Ver todos los comentarios

    ¿Lograste tocar?

    0 Tocaron 0 Aún no

    ¡Graba un video tocando Dale Gracias y envíanoslo!

    00:00 / 00:00
    OK