Cifra Club

Digital Ayatollah

Spinetta Jade

Cifrado: Principal (guitarra y guitarra eléctrica)
tono: C#m
Intro (Fig. A):
E|---------------------------2p0---2p0---|
B|----0-------3------2-----0----0-----0--|
G|--0---3--2---0---0-----0-------0-----0-|
d|4--------------0-----3-----------------|
A|---------------------------------------|
E|---------------------------------------|

E|---------------------------2p0---5--7--|
B|----0-------3------2-----0----0---5---7|
G|--0---3--2---0---0-----0-------0-------|
d|4--------------0-----3-----------------|
A|---------------------------------------|
E|---------------------------------------|

00:07 a 00:35: Fig. B
E|---------------------------2p0---2p0---|
B|----0-------3------2-----0----0-----0--|
G|--0---3--2---0---0-----0-------0-----0-|
d|4--------------0-----3-----------------|
A|---------------------------------------|
E|---------------------------------------|

E|---------------------------2p0---5p0---|
B|----0-------3------2-----0----0------0-|
G|--0---3--2---0---0-----0-------0------0|
d|4--------------0-----3-----------------|
A|---------------------------------------|
E|---------------------------------------|

00:35 a 00:42: Fig. C
E|-----------------------------------|--| |---------||
B|-----3--2----4p0--0-5------4--5--7-|--| |----4--5-||
G|---2---------------------4---------|--| |---4-----||
D|-4--------------4------6-----------| x2||-6-------||
A|-----------------------------------|--| |---------||
E|-----------------------------------|--| |---------||

00:42 a 00:56: Fig. D
E|---------------------------2p0---2p0---|
B|----0-------3------2-----0----0-----0--|
G|--0---3--2---0---0-----0-------0-----0-|
d|4--------------0-----3-----------------|
A|---------------------------------------|
E|---------------------------------------|

E|---------------------------2p0---5---7-|
B|----0-------3------2-----0----0--------|
G|--0---3--2---0---0-----0-------0-------|
d|4--------------0-----3-----------------|
A|---------------------------------------|
E|---------------------------------------|

00:56 a 01:03: Fig. C

01:03 a 01:10: Fig. B

01:10 a 01:20: Fig. E
E|---------------|---------------|---------------| |-------------|--||
B|-----4------3--|-----5------4--|------2-------1| |------------3|--||
G|---0------0----|---4------4----|---0------0----| |-----3-----2-|--||
D|-4------4------|-6-----6-------|-4------4------| |---0-----0---|x2||
A|---------------|---------------|---------------| |-0-----0-----|--||
E|---------------|---------------|---------------| |-------------|--||

01:20 a 01:27: Fig. B

01:27 a 02:29: Corte A
E|-------|---------------|-------|------------------------------|--| |
B|-------|---------------|-------|-----10-----------------------|--| |
G|-------|-----9-9---9-11|-------| 9/11----11-9--11-9------------|--||
D|-------| 9h11----11-----|-------|------------------11p10p9-11p9|x4||
A|-------|---------------|-------|------------------------------|--| |
E|2-0-2-2|---------------|2-0-2-2|------------------------------|--||

E|----------|----------|--| |--------||
B|-12--9----|-7--5-----|--| |-12--7--||
G|-11--9----|-6--5-----| x2||-11--6--||
D|-10--9----|-5--5-----|--| |-10--5--||
A|----------|----------|--| |--------||
E|----------|----------|--| |--------||

Solo de teclado sobre: Am7/9 - Dm7/9 - E7/#9 - Gmaj7 (x2)

Corte de teclados sobre:
E|----------|
B|----------|
G|----------|
D|----------|
A|----------|
E|-2-0--2-2-|

02:29 a 02:43: Fig. B
02:43 a 02:50: Fig. C
02:50 a 03:05: Fig. D
03:05 a 03:11: Fig. C (sin guitarra)
03:11 a 03:17: Fig. B
03:17 a 03:28: Fig. E
03:28 a 03:35: Fig. B
03:35 a 04:36: Corte A
00:00 / 00:00
Otros videos de esta canción
Repetir
Otros videos de esta canción
Composición de Luis Alberto Spinetta
12 vistas
    • ½ Tono
    • Am
    • Bbm
    • Bm
    • Cm
    • C#m
    • Dm
    • Ebm
    • Em
    • Fm
    • F#m
    • Gm
    • G#m
  • Agregar a la lista

    0 comentarios

    Ver todos los comentarios

    ¿Lograste tocar?

    0 Tocaron 0 Aún no

    ¡Graba un video tocando Digital Ayatollah y envíanoslo!

    00:00 / 00:00
    OK