Cifra Club

La herida de París

Spinetta Jade

Cifrado: Principal (guitarra y guitarra eléctrica)
tono: Bm
Gmaj7           F#m7/11 Em7/9
Lenta bruma cansada de dar al muelle
Gmaj7     F#m7/11       Em7/9
no veo paisajes más que este mar
Gmaj7           F#m7/11   Em7/9
que su viento devuelva la vida y la calma
Gmaj7        F#m7/11   Em7/9
que vea sus barcas volver de luz.

(Gmaj7 F#m7/11)

D          A9           F#m7
Tu sombra hiende la distancia
            Gmaj7     Amaj7   Amaj7 Abmaj7 Gmaj7
es como un pétalo de sal
D       A9            F#m7
y tu mirada me saca el aire
           Gmaj7     Amaj7        Gmaj7 F#m7/11 Em7/9
será la herida de París, ah, ah, ah.

Piedra y ala de láser y de misterio
tu rayo me quita la soledad
qué será de tu viejo navío blanco
¿sabrás devolvérmelo de luz?
hoy que veo más sombras que nada
tu dulzor me haría reír
y tu corazón desnuda fuego
será la flecha de París.

(Gmaj7 F#m7/11)

Tu sombra hiende la distancia
es como un pétalo de sal
y tu corazón vence las ruinas
será la herida de París.

Riff Final: (Ver abajo)

Acordes:



Riff del intro:

        Gmaj7         F#m7/11    Em7/9
E|-------------------------------------------------------|
B|----------3-----------------------3-----3-3----3-3-----|
G|--------4---4----------2--------0---0-------0-----0----|
D|------4---------------2-------2------------------------|
A|-------------------------------------------------------|
E|--3-------------3---2-------0--------------------------|



Riff final:

E|---7-------x--7-----7--7--------------------|
B|---7-------12-7-----10-8-------| y luego------|
G|---7-------11-7-----7--7---x3--t| ermina en---|
D|---9-------9--9-----9--9---------| GMaj7------|
A|---10------9--10----7--7--------------------|
E|---7-------9--7-----7--7--------------------|
00:00 / 00:00
Otros videos de esta canción
Repetir
Otros videos de esta canción
Composición de Luis Alberto Spinetta
35 vistas
    • ½ Tono
    • Am
    • Bbm
    • Bm
    • Cm
    • C#m
    • Dm
    • Ebm
    • Em
    • Fm
    • F#m
    • Gm
    • G#m
  • Agregar a la lista

    0 comentarios

    Ver todos los comentarios

    ¿Lograste tocar?

    0 Tocaron 0 Aún no

    ¡Graba un video tocando La herida de París y envíanoslo!

    00:00 / 00:00
    OK