Cifra Club

Make My Heart Attack Intro

Spitalfield

Cifrado: Principal (guitarra y guitarra eléctrica)
Selo Cifra Club: esta cifra foi revisada para atender aos critérios oficiais da nossa Equipe de Qualidade.
tono: G
Song name -make my heart attack
Tabbed by Brent
Email - *

e|2-2-3-3--7-7--5-5-5----------------------------|
B|4-4-5-5--9-9--7-7-7----------------------------|
G|4-4-5-5--9-9--7-7-7----------------------------| 2x
D|-----------------------------------------------|
A|-----------------------------------------------|
E|-----------------------------------------------|
  x-x-x-x--x-x--x-x-x----------------------------|

e|2-2-3-3--7-7--5-5-5-7-5----------------------|
B|4-4-5-5--9-9--7-7-7-9-7----------------------|
G|4-4-5-5--9-9--7-7-7-9-7----------------------| 1x
D|---------------------------------------------|
A|---------------------------------------------|
E|---------------------------------------------|

e|2-2-3-3--3-3-3-5-5---------------------------|
B|4-4-5-5--5-5-5-7-7---------------------------|
G|4-4-5-5--5-5-5-7-7---------------------------| 1x
D|---------------------------------------------|
A|---------------------------------------------|
E|---------------------------------------------|

e|2-2-3-3--7-7--5-5-5-7-5----------------------|
B|4-4-5-5--9-9--7-7-7-9-7----------------------|
G|4-4-5-5--9-9--7-7-7-9-7----------------------| 1x
D|---------------------------------------------|
A|---------------------------------------------|
E|---------------------------------------------|

e|2-2-3-3--3-3-3-5-5---------------------------|
B|4-4-5-5--5-5-5-7-7---------------------------|
G|4-4-5-5--5-5-5-7-7---------------------------| 1x
D|---------------------------------------------|
A|---------------------------------------------|
E|---------------------------------------------|
Otros videos de esta canción
    13 exhibiciones
      • ½ Tono
      • A
      • Bb
      • B
      • C
      • Db
      • D
      • Eb
      • E
      • F
      • F#
      • G
      • Ab
    • Agregar a la lista

    Afinação da cifra

    Afinador online

      Ops (: Contenido disponible solo en portugués.
      OK