Cifra Club

Tesa With A Dollar Sign

Spitalfield

Tab de bajo: Principal
Selo Cifra Club: esta cifra foi revisada para atender aos critérios oficiais da nossa Equipe de Qualidade.
Album: Stop Doing Bad Things
Tabber: Calum Neil (*)
Tuning: Drop d

Intro:
G|-------------------------------------------------------------|
D|--------------------------------------------------------3p2--|
A|-0-0-0-0-0--3h5-------------3h5-----------3h5----------------| 
d|----------------3-3-3-3-3------5-5-5-5-5------3-3-3-3-3------|

Verse:
G|---------------------------------------|
D|----------------------------------3p2--|
A|-0-0--3h5------3h5------3h5------------| 
d|-----------3-3------5-5------3-3-------|

Pre-Chorus:
G|-------|
D|-------|
A|-1-----| 
d|----3--|

Chorus (1st Part):
G|-------------------------------------------------------------|
D|--------------------------------------------------------3p2--|
A|-0-0-0-0-0--3h5-------------3h5-----------3h5----------------| 
d|----------------3-3-3-3-3------5-5-5-5-5------3-3-3-3-3------|

Chorus (2nd Part):
G|-----------------------------------|
D|-----------------------------------|
A|-1-1-1-1-1-1-1-1-------------------|
d|------------------3-3-3-3-3-3-3-3--|

Outro:
G|---------------------------------------|
D|---------------------------------------|
A|---------------3-3---------------------|
d|--5-5--7-7-7-7-----3-3-3-3--3-3-3-3-3--|
Otros videos de esta canción
    20 exhibiciones

    Afinação da cifra

    Afinador online

    Ops (: Contenido disponible solo en portugués.
    OK