Cifra Club

Those Days You Felt Alive Intro

Spitalfield

Cifrado: Principal (guitarra y guitarra eléctrica)
Selo Cifra Club: esta cifra foi revisada para atender aos critérios oficiais da nossa Equipe de Qualidade.
tono: F#
Guitar One:
|-4---------------| Repeat several times at random points.
|---4-6-----------| 
|-------6-5h6p5---|
|---------------6-|
|-----------------|
|-----------------|


Guitar Two:
|---------------------------------|  3x |----------------|
|---------------------------------|     |----------------|
|---------------------------------|     |----------------|
|-8-8--6/8--6-6--4-4--6/8--6--8---|     |-4-(12x)---4/6--|
|-8-8--6/8-------4-4-------6------|     |-4---------4/6--|
|-6-6--4/6-------2-2-------4------|     |-2---------2/4--|

|---------------------------------|  3x |-------------------|
|---------------------------------|     |-------------------|
|---------------------------------|     |-------------------|
|-8-8--6/8--6-6--4-4--6/8--6--8---|     |-4-(16x)---6-(16x)-|
|-8-8--6/8-------4-4-------6------|     |-4---------4-------|
|-6-6--4/6-------2-2-------4------|     |-2---------4-------|

|--4-(16x)-|
|--6-------|
|--6-------|
|----------|
|----------|
|----------|
Otros videos de esta canción
    8 exhibiciones
      • ½ Tono
      • A
      • Bb
      • B
      • C
      • Db
      • D
      • Eb
      • E
      • F
      • F#
      • G
      • Ab
    • Agregar a la lista

    Afinação da cifra

    Afinador online

      Ops (: Contenido disponible solo en portugués.
      OK