Cifra Club

Wont Back Down

Spitalfield

Cifrado: Principal (guitarra y guitarra eléctrica)
Selo Cifra Club: esta cifra foi revisada para atender aos critérios oficiais da nossa Equipe de Qualidade.
tono: E
Intro 1

Guitar 1
|-00000000000000000000000000000000-|
|-00000000000000000000000033333333-|
|-22222222222222222222222222222222-|
|-22222222222222222222222200000000-|
E|-000000002222222244444444---------|
B|----------------------------------|

Guitar 2
E|------------7-------|
B|-----9---10--10-----|
G|---9--9-------------|
D|-7------7-----------|
A|--------------------|
E|--------------------|

Intro 2

Guitar 1
E|-------------------------------0~-----|
B|-------------------------------0~-----|
G|------6------6------6------6---6~-----|
D|--77h9-6h77h9-6h77h9-6h77h9-6--7~-----|
A|-------------------------------0~-----|
E|--------------------------------------|

Guitar 2
E|--0000-0000-0000-0000-0000-0000-00000000-0-|
B|--0000-0000-0000-0000-0000-0000-00000000-0-|
G|--2222-2222-2222-2222-2222-2222-11111111-2-|
D|--4444-0000-4444-0000-4444-0000-22222222-2-|
A|--4444-0000-4444-0000-4444-0000-22222222-0-|
E|--4444-0000-4444-0000-4444-0000-22222222---|

Verse
Guitar 1 
E|------------7-------|
B|-----9---10--10-----|
G|---9--9-------------|
D|-7------7-----------|
A|--------------------|
E|--------------------|

Guitar 2
E|--00000000000000000000000000000000-0000000-0000000-0000000000000000-|
B|--00000000000000003333333333333333-0000000-0000000-3333222233332222-|
G|--22222222222222222222222222222222-2222222-2222222-2222222222222222-|
D|--22222222222222220000000000000000-2222222-2222222-0000000000000000-|
A|--00000000000000000000000000000000-xxxxxxx-xxxxxxx-0000000000000000-|
E|------------------0000000000000000-4444444-2222222-0000000000000000-|

Chorus
Guitar 1
E|---------------------------------------------|
B|--6666-8888-999911-11-11-11------------------|
G|--xxxx-xxxx-xxxx-x--x--x--x------6------6----|
D|--4444-6666-7777-9--9--9--9--77h9-6h77h9-6h7~|
A|---------------------------------------------|
E|---------------------------------------------|

Guitar 2
E|--0000-0000--------------------------------|
B|--0000-0000--------------------------------|
G|--4444-6666-----------2222222222222222-----|
D|--4444-6666-77777777--4444000044440000-0~--|
A|--2222-4444-77777777--4444000044440000-0~--|
E|------------77776666--4444000044440000-0~--|

Verse
Guitar 1
E|-----5-------5------5------5-----|
B|---5--5----5--5---5--5---5--5----|
G|-2-------2------2------2---------|
D|---------------------------------|
A|---------------------------------|
E|---------------------------------|

Guitar 2
E|--00000000000000000000000000000000-0000000-0000000-0000000000000000-|
B|--00000000000000003333333333333333-0000000-0000000-3333222233332222-|
G|--22222222222222222222222222222222-2222222-2222222-2222222222222222-|
D|--22222222222222220000000000000000-2222222-2222222-0000000000000000-|
A|--00000000000000000000000000000000-xxxxxxx-xxxxxxx-0000000000000000-|
E|------------------0000000000000000-4444444-2222222-0000000000000000-|

Guitar 1
E|-------------------------------0~--------|
B|-------------------------------0~--------|
G|------6------6------6------6---6~--------|
D|--77h9-6h77h9-6h77h9-6h77h9-6--7~--------|
A|-------------------------------0~--------|
E|-----------------------------------------|


Guitar 2
E|--0000-0000-0000-0000-0000-0000-0~-|
B|--0000-0000-0000-0000-0000-0000-0~-|
G|--2222-2222-2222-2222-2222-2222-2~-|
D|--4444-0000-4444-0000-4444-0000-2~-|
A|--4444-0000-4444-0000-4444-0000-0~-|
E|--4444-0000-4444-0000-4444-0000----|

Guitar 1
E|-----------------------------|
B|-----------------------------|
G|--4--4--6--6--4--4--6--6-----|
D|----7--7--7--7--7--7--7--7---|
A|-----------------------------|
E|-----------------------------|

Guitar 2
E|--0000000000000000-0000000000000000-0000000-0000000-0000000000000000-|
B|--0000000000000000-3333333333333333-0000000-0000000-3333222233332222-|
G|--2222222222222222-2222222222222222-2222222-2222222-2222222222222222-|
D|--2222222222222222-0000000000000000-2222222-2222222-0000000000000000-|
A|--0000000000000000-0000000000000000-xxxxxxx-xxxxxxx-0000000000000000-|
E|-------------------0000000000000000-4444444-2222222-0000000000000000-|


Chorus

Bridge
Guitar 1
E|---------------------------------------------------------12h0-------|
B|--9~--9~--9h10-9h10--------9-------9h10-------9------9h10----9h10---|
G|---9~--9~-----9----11-------9----------9-------9-9h11------------11-|
D|-7~--7~---------------9-999---9-999------9-999----------------------|
A|----------------------0-000---0-000------0-000----------------------|
E|--------------------------------------------------------------------|
                       * ***   * ***      * ***
E|---------------------------------------12h0--------|
B|---9~--10h9-----------------9------9h10-----9h0----|
G|--9--9~----9h11p9------------9-9h11------------11--|
D|--7--------------9h11--9-999-----------------------|
A|--0--------------------0-000-----------------------|
E|---------------------------------------------------|
                        * ***
(*) Palm Mute
(~) Ring Out

Guitar 2
E|--0~----0~----0~----0~----0~----0~----0~----0~----|
B|--0~----0~----3~----3~----0~----0~----3~----3~----|
G|--2~----2~----2~----2~----2~----2~----2~----2~----|
D|--2~----2~----0~----0~----4~----4~----0~----0~----|
A|--0~----0~----0~----0~----4~----4~----0~----0~----|
E|--------------0~----0~----4~----4~----0~----0~----|
Otros videos de esta canción
    0 exhibiciones
      • ½ Tono
      • A
      • Bb
      • B
      • C
      • Db
      • D
      • Eb
      • E
      • F
      • F#
      • G
      • Ab
    • Agregar a la lista

    Afinação da cifra

    Afinador online

      Ops (: Contenido disponible solo en portugués.
      OK