Cifra Club

Fields

Sponge

Cifrado: Principal (guitarra y guitarra eléctrica)
Selo Cifra Club: esta cifra foi revisada para atender aos critérios oficiais da nossa Equipe de Qualidade.
tono: G
INTRO 

E|---------------------------------------------------------------------------|
B|--5---3---0---3---0----------5---3---0---3---0-----------------------------|
G|--0---0---0---0---0----------0---0---0---0---0-----------------------------|
D|--0---0---0---0---0----------4---4---4---4---4-----------4| times-----------|
A|--3---3---3---3---3----------5---5---5---5---5-----------------------------|
E|---------------------------------------------------------------------------|

I did not include the strum pattern, but if you listen to the song you 
should be able to figure it out.
 

E|-----0---------------------------------------------------------------------|
B|-----0---------------------------------------------------------------------|
G|-----0-------------0-------------------------------------------------------|
D|----2----------4-5-------------------4| times-------------------------------|
A|---3----------5------------------------------------------------------------|
E|--3------------------------------------------------------------------------|
"Oh God, here it comes again..."


E|------3------0------0------------------------------------------------------|
B|------3------0------x------------------------------------------------------|
G|------5------0------2------------------------------------------------------|
D|------5------2------3----------------------2| times-------------------------|
A|------3------2------3------------------------------------------------------|
E|------3------0------1------------------------------------------------------|
"...alive. Save me from myself..."


E|---------------0------------------0------------------------------------3----3--5--3--0|
B|---------------1------------------1------------------------------------3----3--3--3--3|
G|---------------0------------------0------------------0-------0------------------------|
D|---------------2------------------2---------------2-----0h2-----0---------------------|
A|-----------0------------------0----------0--2--3--------------------------------------|
E|---0---3--------------0---3-----------------------------------------3-----------------|
"Turn around, throw it all away..."


E|---------------------------------------------------------------------------|
B|--5---3---0---3---0----------5---3---0---3---0-----------------------------|
G|--0---0---0---0---0----------0---0---0---0---0-----------------------------|
D|--0---0---0---0---0----------4---4---4---4---4-----------2| times-----------|
A|--3---3---3---3---3----------5---5---5---5---5-----------------------------|
E|---------------------------------------------------------------------------|
"To the fields of falling angels..."


[Verse 2]

     Guitar 1:
E|---------------------------------------------------------------------------|
B|-----------8-------------8-------------------------------------------------|
G|-----7--9---------9--11-----11---------------------------------------------|
D|--10----------12----------------12----------------4| times------------------|
A|---------------------------------------------------------------------------|
E|---------------------------------------------------------------------------|
   
     Guitar 2: 
E|-----0---------------------------------------------------------------------|
B|-----0---------------------------------------------------------------------|
G|-----0-------------0-------------------------------------------------------|
D|----2----------4-5--------------------------------4| times------------------|
A|---3----------5------------------------------------------------------------|
E|--3------------------------------------------------------------------------|
"Best friends, that's what we used to say..."


E|------3------0------0------------------------------------------------------|
B|------3------0------x------------------------------------------------------|
G|------5------0------2------------------------------------------------------|
D|------5------2------3----------------------2| times-------------------------|
A|------3------2------3------------------------------------------------------|
E|------3------0------1------------------------------------------------------|
"...Why. Save me from myself..."


E|---------------0------------------0------------------------------------3----3--5--3--0|
B|---------------1------------------1------------------------------------3----3--3--3--3|
G|---------------0------------------0------------------0-------0------------------------|
D|---------------2------------------2---------------2-----0h2-----0---------------------|
A|-----------0------------------0----------0--2--3--------------------------------------|
E|---0---3--------------0---3-----------------------------------------3-----------------|
"Turn around, throw it all away..."


E|---------------------------------------------------------------------------|
B|--5---3---0---3---0----------5---3---0---3---0-----------------------------|
G|--0---0---0---0---0----------0---0---0---0---0-----------------------------|
D|--0---0---0---0---0----------4---4---4---4---4-----------4| times-----------|
A|--3---3---3---3---3----------5---5---5---5---5-----------------------------|
E|---------------------------------------------------------------------------|
"To the fields of falling angels..."


Solo

E|-----------------------------------------------------------------------------|
B|-----------------------------------------------------------------------------|
G|12--11-9-9-9--11-12--14--12-11-11-12--11-12-11-9-9-9-11-12-14-16-16-16-16-14-|
D|x---x--x-x-x--x--x---x---x--x--x---x--x--x--x--x-x-x-x--x--x--x--x--x--x--x--|
A|10--9--7-7-7--9--10--12--10-9--9--10--9--10-9--7-7-7-9--10-12-14-14-14-14-12-|
E|-----------------------------------------------------------------------------|

E|---------------------------------------------------------------------------|
B|---------------------------------------------------------------------------|
G|-12-14-17-16-14-14-16-17-19-19-17-16-16-17-16-16-14-14-12-12-14-14-12-12-11|
D|-x--x--x--x--x--x--x--x--x--x--x--x--x--x--x--x--x--x--x--x--x--x--x--x--x-|
A|-10-12-15-14-12-12-14-15-17-17-15-14-14-15-14-14-12-12-10-10-12-12-10-10-9-|
E|---------------------------------------------------------------------------|

E|-----------|
B|-----------|
G|----9------|
D|----x------|
A|----7------|
E|-----------|

E|---------0----0------------------------------------------------------------|
B|---------3----3------------------------------------------------------------|
G|---------2----2------------------------------------------------------------|
D|---2-----0----2-------------------------4| times----------------------------|
A|---2----------0------------------------------------------------------------|
E|---0-----------------------------------------------------------------------|
"If I die before I wake..."

E|------3------0------0------------------------------------------------------|
B|------3------0------x------------------------------------------------------|
G|------5------0------2------------------------------------------------------|
D|------5------2------3----------------------2| times-------------------------|
A|------3------2------3------------------------------------------------------|
E|------3------0------1------------------------------------------------------|
" Save me from myself..."


[Outro]

E|---------------0------0------------------0---------------------------------|
B|---------------1------0------------------0------0h1------------------------|
G|---------------0------9------------------9------2--------------------------|
D|---------------2------7---------10-5-7---7------2--------------------------|
A|---------0-----0------0-----9-8----------0------0--------------------------|
E|---0--3--------------------------------------------------------------------|
Otros videos de esta canción
    20 exhibiciones
      • ½ Tono
      • A
      • Bb
      • B
      • C
      • Db
      • D
      • Eb
      • E
      • F
      • F#
      • G
      • Ab
    • Agregar a la lista

    Afinación de cifrado

    Afinador online

      OK