Cifra Club

Can I Sit Next To You

Spoon

Cifrado: Principal (guitarra y guitarra eléctrica)
Selo Cifra Club: esta cifra foi revisada para atender aos critérios oficiais da nossa Equipe de Qualidade.
tono: Bm
Bm: 799777
G:  355433
Em: x79987
A:  577655
A#: 688766

[Intro]
                                                  "Can I..
E|----------------------------------------------------------|
B|----------------------------------------------------------|
G|----------------------------------------------------------|
D|--------9--------------9-------------9-----9--9-----7-----|
A|----------------------------------------------------------|
E|---7--------------7-------------7-------------------------|

[Verse 1]
  "..sit next to you.."
E|----------------------------------------------------------|
B|----------------------------------------------------------|
G|----------------------------------------------------------|
D|--------9--------------9--------------9-----9--9------7---|
A|----------------------------------------------------------|
E|---7--------------7--------------7------------------------|
                                                        "Get..

E|----------------------------------------------------------|
B|----------------------------------------------------------|
G|----------------------------------------------------------|
D|--------5--------------5--------------5-----5--5------4---|
A|----------------------------------------------------------|
E|---3--------------3--------------3------------------------|

"the stars out your eyes.." 
E|----------------------------------------------------------|
B|----------------------------------------------------------|
G|----------------------------------------------------------|
D|--------9--------------9--------------9-----9--9------7---|
A|----------------------------------------------------------|
E|---7--------------7--------------7------------------------|
                                                       "I been down so

E|----------------------------------------------------------|
B|----------------------------------------------------------|
G|----------------------------------------------------------|
D|--------5--------------5--------------5-----5--5------4---|
A|----------------------------------------------------------|
E|---3--------------3--------------3------------------------|

[Chorus 1]
 "..long"                                "I've been working on a.."
E|---7----7---------7----7---------7----7---------7----7----|
B|---8----8---------8----8---------8----8---------8----8----|
G|---9----9---------9----9---------9----9---------9----9----|
D|---9----9---------9----9---------9----9---------9----9----|
A|---7----7---------7----7---------7----7---------7----7----|
E|----------------------------------------------------------|
  
   "plan, yeah.."                                     "I been down so.."

E|--------7-------------------------------------------------|
B|--------7-------------------------------------------------|
G|--------7-------------------------------------------------|
D|---9----9---------------9--------------9-------------9----|
A|---9----9-------------------------------------------------|
E|---7----7----------7--------------7-------------7---------|

   "..long"                "I gotta get me.."

E|---7----7---------7----7---------5----5----5----5---------|
B|---8----8---------8----8---------5----5----5----5---------|
G|---9----9---------9----9---------6----6----6----6---------|
D|---9----9---------9----9---------7----7----7----7---------|
A|---7----7---------7----7---------7----7----7----7---------|
E|---------------------------------5----5----5----5---------|

[Piano Riff played along with Chorus]
   "I've  been  wor--king  on  a   plan,  yeah"
E|---7----9-----10---9-----7---5---7----7----7----7---------|
B|---------------------------------7----7----7----7---------|
G|---------------------------------7----7----7----7---------|
D|---9----11----12---11----9---7---9----9----9----9---------|
A|---------------------------------9----9----9----9---------|
E|---------------------------------7----7----7----7---------|

[Verse 2]
  "..sit next to you.."
E|----------------------------------------------------------|
B|----------------------------------------------------------|
G|----------------------------------------------------------|
D|--------9--------------9--------------9-----9--9------7---|
A|----------------------------------------------------------|
E|---7--------------7--------------7------------------------|
                                                        "I walk..

E|----------------------------------------------------------|
B|----------------------------------------------------------|
G|----------------------------------------------------------|
D|--------5--------------5--------------5-----5--5------4---|
A|----------------------------------------------------------|
E|---3--------------3--------------3------------------------|

"to Memphis alone.." 
E|----------------------------------------------------------|
B|----------------------------------------------------------|
G|----------------------------------------------------------|
D|--------9--------------9--------------9-----9--9------7---|
A|----------------------------------------------------------|
E|---7--------------7--------------7------------------------|
                                                       "All the.. 

E|----------------------------------------------------------|
B|----------------------------------------------------------|
G|----------------------------------------------------------|
D|--------5--------------5--------------5-----5--5------4---|
A|----------------------------------------------------------|
E|---3--------------3--------------3------------------------|

  "..kicks from the sticks.."
E|----------------------------------------------------------|
B|----------------------------------------------------------|
G|----------------------------------------------------------|
D|--------9--------------9--------------9-----9--9------7---|
A|----------------------------------------------------------|
E|---7--------------7--------------7------------------------|
                                                        "All the..

E|----------------------------------------------------------|
B|----------------------------------------------------------|
G|----------------------------------------------------------|
D|--------5--------------5--------------5-----5--5------4---|
A|----------------------------------------------------------|
E|---3--------------3--------------3------------------------|

"..kicks from the sticks.."
E|----------------------------------------------------------|
B|----------------------------------------------------------|
G|----------------------------------------------------------|
D|--------9--------------9--------------9-----9--9------7---|
A|----------------------------------------------------------|
E|---7--------------7--------------7------------------------|
                                                       
E|----------------------------------------------------------|
B|----------------------------------------------------------|
G|----------------------------------------------------------|
D|--------5--------------5--------------5-----5--5------4---|
A|----------------------------------------------------------|
E|---3--------------3--------------3------------------------|

[Chorus 2]
                          "Someday I'm gonna.."
E|---7----7---------7----7---------7----7---------7----7----|
B|---8----8---------8----8---------8----8---------8----8----|
G|---9----9---------9----9---------9----9---------9----9----|
D|---9----9---------9----9---------9----9---------9----9----|
A|---7----7---------7----7---------7----7---------7----7----|
E|----------------------------------------------------------|
  
                                                "I've been down.."

E|--------7-------------------------------------------------|
B|--------7-------------------------------------------------|
G|--------7-------------------------------------------------|
D|---9----9--------------9--------------9--------------9----|
A|---9----9-------------------------------------------------|
E|---7----7---------7--------------7--------------7---------|

"so long.."                                  "...I gotta get lifted.."

E|---7----7---------7----7---------5----5-------------------|
B|---8----8---------8----8---------5----5-------------------|
G|---9----9---------9----9---------6----6----7----7---------|
D|---9----9---------9----9---------7----7----8----8---------|
A|---7----7---------7----7---------7----7----8----8---------|
E|---------------------------------5----5----6----6---------|

[Bridge/Synth Solo]
E|---7----7---------7----7---------7----7---------7----7----|
B|---7----7---------7----7---------7----7---------7----7----|
G|---7----7---------7----7---------7----7---------7----7----|
D|---9----9---------9----9---------9----9---------9----9----|
A|---9----9---------9----9---------9----9---------9----9----|
E|---7----7---------7----7---------7----7---------7----7----|
                                                              (x2)
E|---3----3---------3----3---------3----3---------3----3----|
B|---3----3---------3----3---------3----3---------3----3----|
G|---4----4---------4----4---------4----4---------4----4----|
D|---5----5---------5----5---------5----5---------5----5----|
A|---5----5---------5----5---------5----5---------5----5----|
E|---3----3---------3----3---------3----3---------3----3----|

[Verse 3] 
  "Gonna walk a tightrope.."
E|-----------------------------------------------------------|
B|-----------------------------------------------------------|
G|---7----7---------7----7---------7----7--------------------|
D|---9----9---------9----9---------9----9---------9-9--8--7--|
A|---9----9---------9----9---------9----9---------9-9--8--7--|
E|---7----7---------7----7---------7----7---------7-7--6--5--|

E|-----------------------------------------------------------|
B|-----------------------------------------------------------|
G|---4----4---------4----4---------4----4--------------------|
D|---5----5---------5----5---------5----5---------5-5-5-5--7-|
A|---5----5---------5----5---------5----5---------5-5-5-5--7-|
E|---3----3---------3----3---------3----3---------3-3-3-3--5-|

"No one's holding me back..."

E|--------7--------------7--------------7---------7-7--------|
B|--------7--------------7--------------7---------7-7--------|
G|--------7--------------7--------------7---------7-7--------|
D|---9----9---------9----9---------9----9---------9-9--8--7--|
A|---9--------------9--------------9----9---------9-9--8--7--|
E|---7--------------7--------------7----7---------7-7--6--5--|

E|-----------------------------------------------------------|
B|-----------------------------------------------------------|
G|---4----4---------4----4---------4----4--------------------|
D|---5----5---------5----5---------5----5---------5-5-5-5--7-|
A|---5----5---------5----5---------5----5---------5-5-5-5--7-|
E|---3----3---------3----3---------3----3---------3-3-3-3--5-|

 "Gonna walk a tightrope..."

E|-----------------------------------------------------------|
B|-----------------------------------------------------------|
G|---7----7---------7----7---------7----7--------------------|
D|---9----9---------9----9---------9----9---------9-9--8--7--|
A|---9----9---------9----9---------9----9---------9-9--8--7--|
E|---7----7---------7----7---------7----7---------7-7--6--5--|

 "No one's holding me back.."

E|-----------------------------------------------------------|
B|-----------------------------------------------------------|
G|---4----4---------4----4---------4----4--------------------|
D|---5----5---------5----5---------5----5---------5-5-5-5--7-|
A|---5----5---------5----5---------5----5---------5-5-5-5--7-|
E|---3----3---------3----3---------3----3---------3-3-3-3--5-|

 "Get the stars out your eyes.."

E|-----------------------------------------------------------|
B|-----------------------------------------------------------|
G|---7----7---------7----7---------7----7--------------------|
D|---9----9---------9----9---------9----9---------9-9--8--7--|
A|---9----9---------9----9---------9----9---------9-9--8--7--|
E|---7----7---------7----7---------7----7---------7-7--6--5--|

 "Under Tennessee skies.."

E|-----------------------------------------------------------|
B|-----------------------------------------------------------|
G|---4----4---------4----4---------4----4--------------------|
D|---5----5---------5----5---------5----5---------5-5-5-5--7-|
A|---5----5---------5----5---------5----5---------5-5-5-5--7-|
E|---3----3---------3----3---------3----3---------3-3-3-3--5-|

[Chorus 3]
                                       "I've been working..."
E|---7----7---------7----7---------7----7---------7----7----|
B|---8----8---------8----8---------8----8---------8----8----|
G|---9----9---------9----9---------9----9---------9----9----|
D|---9----9---------9----9---------9----9---------9----9----|
A|---7----7---------7----7---------7----7---------7----7----|
E|----------------------------------------------------------|
  
                                                "I've been down.."

E|---7----7---------7----7---------7----7---------7----7----|
B|---7----7---------7----7---------7----7---------7----7----|
G|---7----7---------7----7---------7----7---------7----7----|
D|---9----9---------9----9---------9----9---------9----9----|
A|---9----9---------9----9---------9----9---------9----9----|
E|---7----7---------7----7---------7----7---------7----7----|

"so long.."                                  "...I gotta get lifted.."

E|---7----7---------7----7---------5----5-------------------|
B|---8----8---------8----8---------5----5-------------------|
G|---9----9---------9----9---------6----6----7----7---------|
D|---9----9---------9----9---------7----7----8----8---------|
A|---7----7---------7----7---------7----7----8----8---------|
E|---------------------------------5----5----6----6---------|

[Bridge/Synth Solo]
E|---7----7---------7----7---------7----7---------7----7----|
B|---7----7---------7----7---------7----7---------7----7----|
G|---7----7---------7----7---------7----7---------7----7----|
D|---9----9---------9----9---------9----9---------9----9----|
A|---9----9---------9----9---------9----9---------9----9----|
E|---7----7---------7----7---------7----7---------7----7----|
                                                              (x4)
E|---3----3---------3----3---------3----3---------3----3----|
B|---3----3---------3----3---------3----3---------3----3----|
G|---4----4---------4----4---------4----4---------4----4----|
D|---5----5---------5----5---------5----5---------5----5----|
A|---5----5---------5----5---------5----5---------5----5----|
E|---3----3---------3----3---------3----3---------3----3----|

[Outro]
E|---7----7---------7----7---------7----7---------7----7----|
B|---7----7---------7----7---------7----7---------7----7----|
G|---7----7---------7----7---------7----7---------7----7----|
D|---9----9---------7----7---------5----5---------x----x----|
A|------------------------------------------------9----9----|
E|----------------------------------------------------------|
                                                              (x4)
E|---7----7---------5----5---------3----3---------2----2----|
B|---7----7---------3----3---------3----3---------3----3----|
G|---7----7---------4----4---------4----4---------4----4----|
D|---5----5---------5----5---------5----5---------5----5----|
A|----------------------------------------------------------|
E|----------------------------------------------------------|
Otros videos de esta canción
    7 exhibiciones
      • ½ Tono
      • Am
      • Bbm
      • Bm
      • Cm
      • C#m
      • Dm
      • Ebm
      • Em
      • Fm
      • F#m
      • Gm
      • G#m
    • Agregar a la lista

    Afinação da cifra

    Afinador online

      Ops (: Contenido disponible solo en portugués.
      OK