Cifra Club

Chicago At Night

Spoon

Cifrado: Principal (guitarra y guitarra eléctrica)
Selo Cifra Club: esta cifra foi revisada para atender aos critérios oficiais da nossa Equipe de Qualidade.
tono: F#m
F#m(maj7)  24322x
F#         2443xx

[Intro]
    >        >        >     >
    1  &  2  &  3  &  4  &  1  &  2  &    3  &    4  &
E|------------------------------------------------------|
B|------------------------------------------------------|
G|------------------------------------------------------|
D|--7--7--7--7--7--7--7--7--7--7--7--9h10p9--9h10p9--7--|
A|--9--9--9--9--9--9--9--9--8--8--8--8-------8-------8--|
E|------------------------------------------------------|

    >        >              >        >
    1  &  2  &  3  &  4  &  1  &  2  &  3  &  4  &
E|--------------------------------------------------|
B|--------------------------------------------------|
G|--------------------------------------------------|
D|--7--7--7--7--7--7--------6--6--6--6--6-----------|
A|--7--7--7--7--7--7\\4---//6--6--6--6--6-----------|
E|-----------------------------------------0--2--4--|
                            ^ Use 7s on the D string for a twist

[Patterns for verses]
   1 & 2 & 3 & 4 & 1 & 2 & 3 & 4 & 1  & 2 & 3 & 4 &
E|--------------------------------------------------|
B|--------------------------------------------------|
G|-------------6----------------------2-------------|
D|-----7-----6-6-------4-------4-----3------3-3-----|
A|---7-7-0-4---------4-4-------4----4-------4-4-----|
E|-5-------------0-2-----2---2---2-2------2-----2-4-|
   Now when ...                ... wall     and she
     woke ...                  ... pall   and all
       night   the     rain    ... down     but then

   1 & 2 & 3 & 4 &   1 & 2 & 3 & 4 &   1 & 2 & 3 & 4 &   1 & 2 & 3 & 4 &
E|------------------------------------------------------------------------|
B|-------------------------------------------------------0-0-0-0-0-0-0-0--|
G|-----------------------2-------2---------2-------2-----2-2-2-2-2-2-2-2--|
D|-----4-------4---------3-------3---------2-------2-----1-1-1-1-1-1-1-1--|
A|---4-4-------4-------4-----------------4---------------2-2-2-2-2-2-2-2--|
E|-2-----2---2---2---2-----2---2---2---0-----0---0---0--------------------|
Chicago ..   b 4 the fall      & it    don't ..  not at  all       and it
   falls     all around        in the  city      hits .. ground    and now

[Verse 1]
A5            C#5        F#5                         F#m(maj7)
Now when she went to Chicago that night, she faced a wall
        A5         C#5                 F#5                              F#m(maj7)
And she woke up outside with all those leaves in her mouth and felt the pall
        A5    C#5 F#           F#m(maj7)
And all night the rain came on down
         A5          C#5        F#5                      F#m(maj7)
But then she'd never been to Chicago at night before the fall
       A/E              B7
And it don't stop, not at all
   F#5       F#m(maj7)     A/E            B7
It falls all around in the city, hits the ground

[Chorus]
        D5             Bsus2
And now everybody's at disadvantage
Dmaj7        D      Dm(maj7)   Dm
Speaking with their second language

[Verse 2]
   A5           C#5        F#5                         F#m(maj7)
And she'd never been there before they went and set up the wall
           A5     C#5      F#5                 F#m(maj7)
And though nobody expected much from this reinvention
          A5    C#5    F#           F#m(maj7)
She still broke right  down after all
        A5             C#5       F#5                 F#m(maj7)
Because she knew that it was all over and we'd hit a wall
             A/E            B7
And like the fall, this was all
         F#5   F#m(maj7)      A/E          B7
Now it's all  around - in the city, on the ground

[Chorus]
        D5             Bsus2
And now everybody's at disadvantage
Dmaj7        D      Dm(maj7)   Dm    F#5
Speaking with their second language

[Interlude]
    1 & 2 & 3 & 4 & 1 & 2 & 3 & 4 & 1 & 2 & 3 & 4 & 1 & 2 & 3 & 4 &
e-|-----------------------------------------------------------------|
B-|-----------------------------------------------------------------|
G-|-----------------------------------------------------------------|
D-|-----------------------------------------------------------------|
A-|-4-4---4---4-----4-4---4---4-----4-4---4---4-----4-4---4---4-----|
E-|-2-2-0-2---2---0-2-2-0-2---2---0-2-2-0-2---2---0-2-2-0-2---2-2-4-|

[Outro]
A5    C#5         F#5               F#m(maj7)
            And I never been to the wall
A5    C#5         F#5               F#m(maj7)
Never been to the wall              Never been to the wall
A5    C#5         F#5               F#m(maj7)
                  Never been to the wall
A5    C#5         F#5               F#m(maj7)
Never been to the wall              Never been to the wall
A5    C#5         F#5               F#m(maj7)   A/E    B7
                  Never been to the wall

[Chorus Riff]
e-|----------------------------------|
B-|-2/7--9-10-----9-10-----9-10------|
G-|------------10--------9-------8---|
D-|----------------------------------|
A-|----------------------------------|
E-|----------------------------------|

************************************

| x    Dead note
| h    Hammer-on
| p    Pull-off
| \    Slide down
| /    Slide up
| d    Down stroke (above tabs)
| u    Up stroke (above tabs)
| >    Accent (above tabs)
Otros videos de esta canción
    6 exhibiciones
      • ½ Tono
      • Am
      • Bbm
      • Bm
      • Cm
      • C#m
      • Dm
      • Ebm
      • Em
      • Fm
      • F#m
      • Gm
      • G#m
    • Agregar a la lista

    Afinación de cifrado

    Afinador online

      OK