Cifra Club

Deep Clean

Spoon

Cifrado: Principal (guitarra y guitarra eléctrica)
Selo Cifra Club: esta cifra foi revisada para atender aos critérios oficiais da nossa Equipe de Qualidade.
tono: Dm
Intro:

E|-7-7-7--8--8--8---6-6-6-6-3-3-3--8--8--8---3-3-3--1-1-1--0-0-0-|
B|-8-8-8--8--8--8---6-6-6-6-3-3-3--8--8--8---3-3-3--1-1-1--1-1-1-|
G|-9-9-9--9--9--9---7-7-7-7-4-4-4--9--9--9---4-4-4--2-2-2--0-0-0-|
D|-9-9-9--10-10-10--8-8-8-8-5-5-5--10-10-10--5-5-5--3-3-3--2-2-2-|
A|-7-7-7--10-10-10--8-8-8-8-5-5-5--10-10-10--5-5-5--3-3-3--3-3-3-|
E|--------8--8--8---6-6-6-5-3-3-3--8--8--8---3-3-3--1-1-1--0-0-0-| 4x

then:

E|-3-3-3--5-5-5--6-6-6--8--8--8--|
B|-3-3-3--5-5-5--6-6-6--8--8--8--|
G|-4-4-4--6-6-6--7-7-7--9--9--9--|
D|-5-5-5--7-7-7--8-8-8--10-10-10-|
A|-5-5-5--7-7-7--8-8-8--10-10-10-|
E|-3-3-3--5-5-5--6-6-6--8--8--8--| 2x

Intro: 2x

then when it goes "take some time to recompose..."

E|-3--0--0--3-|
B|-3--0--1--4-|
G|-4--0--2--5-|
D|-5--2--2--5-|
A|-5--2--0--3-|
E|-3--0--0--X-| 2x
Otros videos de esta canción
    0 exhibiciones
      • ½ Tono
      • Am
      • Bbm
      • Bm
      • Cm
      • C#m
      • Dm
      • Ebm
      • Em
      • Fm
      • F#m
      • Gm
      • G#m
    • Agregar a la lista

    Afinação da cifra

    Afinador online

      Ops (: Contenido disponible solo en portugués.
      OK