Cifra Club

Dont You Evah

Spoon

Cifrado: Principal (guitarra y guitarra eléctrica)
Selo Cifra Club: esta cifra foi revisada para atender aos critérios oficiais da nossa Equipe de Qualidade.
tono: F#
E|E|----------------------------------------------------------------------------||
                             spoon- don’t you evah
E|E|----------------------------------------------------------------------------||
Tabbed by:nimajneb19521
my first tab. one of my favorite newish songs, easy to get the hang of.
Tuning: standard
Bass line thru out the song
E|--------------------------------------------------------------------------|
B|--------------------------------------------------------------------------|
G|--------------------------------------------------------------------------|
D|--------------------------------------------------------------------------|
A|--------------------------------------------------------------------------|
E|9--7-4-4--11-9-7-4-7---9-7-4-4--11--9-7-4-7-------------------------------|
First guitar part and starts in the verse
E|--------------------------------------------------------------------------|
B|--------------------------------------------------------------------------|
G|--------------------------------------------------------------------------|
D|6-6-6--4-4-4--3-3-3--4-4-4--6-6-6--4-4-4--3-3-3--4-4-4--------------------|
A|--------------------------------------------------------------------------|
E|--------------------------------------------------------------------------|
After above part (all sliding up and down)
E|---------------------------------------------------------------------------|
B|---------------------------------------------------------------------------|
G|4-4-4--3-3-3--1-1-1--3-3-3--4-4-4--3-3-3--1-1-1--3-3-3---------------------|
D|6-6-6--4-4-4--3-3-3--4-4-4--6-6-6--4-4-4--3-3-3--4-4-4---------------------|
A|---------------------------------------------------------------------------|
E|---------------------------------------------------------------------------|
Right before the chorous
E|--------------------------------------------------------------------------|
B|--------------------------------------------------------------------------|
G|1-1-1--3-3-3--4-4-4--3-3-3--1-1-1--3-3-3--4-4-4--3-3-3--------------------|
D|3-3-3--4-4-4--6-6-6--4-4-4--3-3-3--4-4-4--6-6-6--4-4-4--------------------|
A|--------------------------------------------------------------------------|
E|--------------------------------------------------------------------------|
Right after chorous
E|----4-4-4-x-----4-4-x--------4-4-4-x-----4-4-4-x--------------------------|
B|----4-4-4-x-----4-4-x--------4-4-4-x-----4-4-4-x--------------------------|
G|--4-4-4-4-x---3-3-3-x------1---1-1-x---3-4-4-4-x--------------------------|
D|6-6-6-------4-4-4--------3-----------4-4----------------------------------|
A|--------------------------------------------------------------------------|
E|--------------------------------------------------------------------------|
Otros videos de esta canción
    25 exhibiciones
      • ½ Tono
      • A
      • Bb
      • B
      • C
      • Db
      • D
      • Eb
      • E
      • F
      • F#
      • G
      • Ab
    • Agregar a la lista

    Afinación de cifrado

    Afinador online

      OK