Cifra Club

Me And The Bean

Spoon

Cifrado: Principal (guitarra y guitarra eléctrica)
Selo Cifra Club: esta cifra foi revisada para atender aos critérios oficiais da nossa Equipe de Qualidade.
tono: G

tabbed by *
from Brit Daniel Solo acoustic recording


Intro

  Em          G
e-0-0--0-0-0--3--3-3--3---------|
B-0-0--0-1-0--0--0-1--0---------|
G-0-0--0-0-0--0--0-0--0---------|
D-2-2--2-2-2--0--0-0--0---------|
A-2-2---------2--2----2---------|
E-0-0---------3--3----3---------|
  Em          C
e-0-0--0-0-0--0--0-0--0---------|
B-0-0--0-1-0--1--1-1--1---------|
G-0-0--0-0-0--0--0-0--0---------|
D-2-2--2-2-2--2--2-2--2---------|
A-2-2---------3--3----3---------|
E-0-0---------------------------|

Verse

Em                G
There's A Girl In My Yard
Em              C
Reading Me My Tarot Cards
She Don't Know Anything
But She's Beautiful To Me

Bridge/Break

e-7-7-7-7-7-7-8--8--8--8--8--8---|
B-8-8-8-8-8-8-10-10-10-10-10-10--|
G--------------------------------|
D--------------------------------|
A--------------------------------|
E--------------------------------|

e-7-7-7-5-5-7-5-3-3-3-3-3-3--|
B-8-8-8-7-7-8-7-5-4-4-4-4-4--|
G----------------------------|
D----------------------------|
A----------------------------|
E----------------------------|

Em                G
My Eyes Are Opening Again
Em                C
I See You As You're Marching In
I'll Bring You Cover When You're Cold
You'll Bring Me Youth When I Grow Old

Em                  G
Do You Remember When You Were Small
Em                   C
How Everybody Would Seem So Tall
I Am Your Shadow In The Dark
I Have Your Blood Inside My Heart

corrections/comments e-mail, please rate
Otros videos de esta canción
    26 exhibiciones
      • ½ Tono
      • A
      • Bb
      • B
      • C
      • Db
      • D
      • Eb
      • E
      • F
      • F#
      • G
      • Ab
    • Agregar a la lista

    Afinação da cifra

    Afinador online

      Ops (: Contenido disponible solo en portugués.
      OK