Cifra Club

Quincy Punk Episode

Spoon

Cifrado: Principal (guitarra y guitarra eléctrica)
Selo Cifra Club: esta cifra foi revisada para atender aos critérios oficiais da nossa Equipe de Qualidade.
tono: G

tabbed by *


Intro

e---------------------------------------------------------------------|
B--7-7-7-7-7-7--------------------------------------------------------|
G--7-7-7-7-7-7--4-4-4-4-4-4--2-2-2-2-2-2------------------------------|
D--7-7-7-7-7-7--5-5-5-5-5-5--3-3-3-3-3-3------------------------------|
A--5-5-5-5-5-5--5-5-5-5-5-5--3-3-3-3-3-3------------------------------|
E---------------3-3-3-3-3-3--1-1-1-1-1-1------------------------------|

Verse

e--5----5-----5-------------------------------------------------------|
B--7----7-----7-------------------------------------------------------|
G--7----7-----7-------------------------------------------------------|
D--7----7-----7-------------------------------------------------------|
A---------------------------------------------------------------------|
E---------------------------------------------------------------------|

Bridge

e---------------------------------------------------------------------|
B---------------------------------------------------------------------|
G----7------7------7-------7--------7---------------------------------|
D----7------7------7-------7--------7---------------------------------|
A----5------5------5-------5--------5---------------------------------|
E---------------------------------------------------------------------|

fill for bridge

e------------------10-------------------------------------------------|
B---------------------------------------------------------------------|
G--10-10-9-12-10-9----------------------------------------------------|
D---------------------------------------------------------------------|
A---------------------------------------------------------------------|
E---------------------------------------------------------------------|

Breakdown

e---------------------------------------------------------------------|
B---------------------------------------------------------------------|
G--------------------------------------7-7-7--7-----------------------|
D--------------------------------------7-7-7--7-----------------------|
A------5-5--------7-7---------8-8------5-5-5--5-----------------------|
E-3-3-3---3-5-5-5-----5-6-6-6-----6-----------------------------------|

Post Breakdown

e---------------------------------------------------------------------|
B--7-7-7-7-7-7--------------------------------------------------------|
G--7-7-7-7-7-7--4-4-4-4-4-4--2-2-2-2-2-2------------------------------|
D--7-7-7-7-7-7--5-5-5-5-5-5--3-3-3-3-3-3------------------------------|
A--5-5-5-5-5-5--5-5-5-5-5-5--3-3-3-3-3-3------------------------------|
E---------------3-3-3-3-3-3--1-1-1-1-1-1------------------------------|


any comments/corrections needed contact me, please rate
Otros videos de esta canción
    10 exhibiciones
      • ½ Tono
      • A
      • Bb
      • B
      • C
      • Db
      • D
      • Eb
      • E
      • F
      • F#
      • G
      • Ab
    • Agregar a la lista

    Afinação da cifra

    Afinador online

      Ops (: Contenido disponible solo en portugués.
      OK