Cifra Club

Stay Dont Go

Spoon

Cifrado: Versão 3 (guitarra y guitarra eléctrica)
Selo Cifra Club: esta cifra foi revisada para atender aos critérios oficiais da nossa Equipe de Qualidade.
tono: G
E|---------------------|
 | Stay don't go     |
 | by: Spoon         |
E|---------------------|

I really enjoy this song and decided it wasn't too hard and I'd try my first Tab so 
if it's inaccurate, hopefully someone can build off it. Its sounds pretty good though. You 
play it really on/off like between chords. It has a very jerky beat, very defined.

  Tuning: Standard

This progression is like the whole song

E|--------------------------------------|
B|--------------------------------------|
G|------5-5-5---7-7-7-------------------|
D|------5-5-5--07-7-7---7-7-7---7-7-7---|
A|--0h3-3-3-3---5-5-5---7-7-7---7-7-7---|
E|--------------------0h5-5-5-0h5-5-5---|

After the first "Stay don't go" start ending that riff with this

E|------------|
B|------------|
G|------------|
D|------------|
A|------------|
  |-0-5-7~9~12-|
Otros videos de esta canción
    0 exhibiciones
      • ½ Tono
      • A
      • Bb
      • B
      • C
      • Db
      • D
      • Eb
      • E
      • F
      • F#
      • G
      • Ab
    • Agregar a la lista

    Afinação da cifra

    Afinador online

      Ops (: Contenido disponible solo en portugués.
      OK