Cifra Club

Take A Walk

Spoon

Cifrado: Principal (guitarra y guitarra eléctrica)
Selo Cifra Club: esta cifra foi revisada para atender aos critérios oficiais da nossa Equipe de Qualidade.
tono: G
E|E|-------------------------------------------------------------------------------||
                             Take A Walk - Spoon
E|E|-------------------------------------------------------------------------------||
Tabbed by:fgooga


Tuning:standard

E|---------------------------------------------------------------------------|
B|---------------------------------------------------------------------------|
G|---------------------------------------------------------------------------|
D|-------------9---7--9---7--------------------------------------------------|
A|----5-5/7-7----7--7---7----------------------------------------------------|
E|--0------------------------------------------------------------------------|

E|---------------------------------------------------------------------------|
B|---------------------------------------------------------------------------|
G|-9-9-9-9-9---------------9-9-9-9-9-----------------------------------------|
D|-9-9-9-9-9-10-10-10-10---9-9-9-9-9-10-10-10-10---x2------------------------|
A|-7-7-7-7-7-10-10-10-10---7-7-7-7-7-10-10-10-10-----------------------------|
E|-----------8--8--8--8--------------8--8--8--8------------------------------|

E|---------------------------------------------------------------------------|
B|---------------------------------------------------------------------------|
G|--10-10-10-10----------------10-10-10-10-----------------------------------|
D|--10-10-10-10--11-11-11-11---10-10-10-10--11-11----------------------------|
A|--8--8--8--8---11-11-11-11---8--8--8--8---11-11----------------------------|
E|---------------9--9--9--9-----------------9--9-----------------------------|

E|---------------------------------------------------------------------------|
B|---------------------------------------------------------------------------|
G|---------------------------------------------------------------------------|
D|----------7-9------------------9p0--7p0---9--------------------------------|
A|----5-5/7-------------------------0----0-----------------------------------|
E|--0------------------------------------------------------------------------|
Timing is kinda tricky here
E|----------------7----------------5-----------------------------------------|
B|---------------------------------------------------------------------------|
G|---2-4-9--2-4-7----2-4-9--2-4------2-4-9-----------------------------------|
D|------------------------------2--------------------------------------------|
A|---------------------------------------------------------------------------|
E|---------------------------------------------------------------------------|

E|---------------------------------------------------------------------------|
B|---------------------------------------------------------------------------|
G|-9-9-9-9-9---------------9-9-9-9-9-----------------------------------------|
D|-9-9-9-9-9-10-10-10-10---9-9-9-9-9-10-10-10---x2---------------------------|
A|-7-7-7-7-7-10-10-10-10---7-7-7-7-7-10-10-10--------------------------------|
E|-----------8--8--8--8--------------8--8--8---------------------------------|

E|---------------------------------------------------------------------------|
B|---------------------------------------------------------------------------|
G|---------------------------------------------------------------------------|
D|-5-7------------------9---7--9---7-----------------------------------------|
A|-5-7---------5-5/7-7----7--7---7-------------------------------------------|
E|-3-5------0----------------------------------------------------------------|

E|---------------------------------------------------------------------------|
B|---------------------------------------------------------------------------|
G|-9-9-9-9-9---------------9-9-9-9-9-----------------------------------------|
D|-9-9-9-9-9-10-10-10-10---9-9-9-9-9-10-10-10-10--x2-------------------------|
A|-7-7-7-7-7-10-10-10-10---7-7-7-7-7-10-10-10-10-----------------------------|
E|-----------8--8--8--8--------------8--8--8--8------------------------------|

E|----------------7----------------5-----------------------------------------|
B|---------------------------------------------------------------------------|
G|---2-4-9--2-4-7----2-4-9--2-4------2-4-9-----------------------------------|
D|------------------------------2--------------------------------------------|
A|---------------------------------------------------------------------------|
E|---------------------------------------------------------------------------|

E|---------------------------------------------------------------------------|
B|---------------------------------------------------------------------------|
G|-9-9-9-9-9---------------9-9-9-9-9-----------------------------------------|
D|-9-9-9-9-9-10-10-10-10---9-9-9-9-9-10-10-10-10--x2-------------------------|
A|-7-7-7-7-7-10-10-10-10---7-7-7-7-7-10-10-10-10-----------------------------|
E|-----------8--8--8--8--------------8--8--8--8------------------------------|

E|---------------------------------------------------------------------------|
B|---------------------------------------------------------------------------|
G|-9-9-9-9-9-9-9-9-9-9-9-9-9-9-9-9-9-9-9-9-9-9-9-9---------------------------|
D|-9-9-9-9-9-9-9-9-9-9-9-9-9-9-9-9-9-9-9-9-9-9-9-9---------------------------|
A|-7-7-7-7-7-7-7-7-7-7-7-7-7-7-7-7-7-7-7-7-7-7-7-7---------------------------|
E|---------------------------------------------------------------------------|

E|---------------------------------------------------------------------------|
B|---------------------------------------------------------------------------|
G|---------------------------------------------------------------------------|
D|-------------9---7--9---7-----x4-------------------------------------------|
A|----5-5/7-7----7--7---7----------------------------------------------------|
E|--0-------------------------------8-8-7-7-5-5-5p3h5p3h5p3p0----------------|
multiple guitar parts here, play intro a couple times then the 887755 part
E|---------------------------------------------------------------------------|
B|---------------------------------------------------------------------------|
G|--9-9----------------------------------------------------------------------|
D|--9-9--p| lay as neccessary, also play intro---------------------------------|
A|--7-7----------------------------------------------------------------------|
E|---------------------------------------------------------------------------|


| /  slide up
| \  slide down
| h  hammer-on
| p  pull-off
| ~  vibrato
| +  harmonic
| x  Mute note
===============================================================================
Otros videos de esta canción
    4 exhibiciones
      • ½ Tono
      • A
      • Bb
      • B
      • C
      • Db
      • D
      • Eb
      • E
      • F
      • F#
      • G
      • Ab
    • Agregar a la lista

    Afinación de cifrado

    Afinador online

      OK