Cifra Club

Time Goes By

Squad Five-o

Tab de bajo: Principal
Selo Cifra Club: esta cifra foi revisada para atender aos critérios oficiais da nossa Equipe de Qualidade.
Intro
G------12-----12---------14-----14-----------11----------9-----------7-------7--|
D--12-----12-----12--12----12------0--9-9-----0--7-7-----0--5-5-----5-5-----|
A-------------------------------------------------------------------------------------|
E-------------------------------------------------------------------------------------|
Verse
G-----------------------------|
D-----------------------------|
A--5-----------------0-2-3--|
E-------7--5--3--------------|

Solo
G------14-------14------14----------14--|
D--12------12------12-------11/12------|
A-------------------------------------------|(Repeat 2X)
E-------------------------------------------|

Solo (Continued):
G--(12)--11-12-14-12-9-5-7--|
D---------------------------------|
A---------------------------------|(Repeat 5X)
E---------------------------------|
Otros videos de esta canción
    9 exhibiciones

    Afinação da cifra

    Afinador online

    Ops (: Contenido disponible solo en portugués.
    OK