Cifra Club

Midnight Cruiser

Steely Dan

Tab de bajo: Principal
Tabbed By : Nicholas C; Bass for Spherical (*)
e-mail: *

Tuning: Standard A=440

Intro:
                          1 & 2 & 3 & 4     x4 to verse
G|---------|----------||------------------||
D|---------|----------||.----------------.||
A|-3-4--4--|-------2--||.-6----6---------.||
E|---------|-2--4-----||------------------||

Verse:
   1 & 2 & 3 & 4   1 & 2 & 3 & 4   1 & 2 & 3 & 4 &   On 2nd Time-Pre Chorus
G|---------------|---------------|-------------------||---------------|
D|---------------|---------------|-9-----9-8-----8--.||-6--6----------| 
A|-6-----6-6-----|-6---6-6-------|------------------.||------9--8--6--|
E|---------------|---------------|-------------------||---------------|

Pre-Chorus

G|-------|--------------|----------|----------|-------|------|
D|-6-6-6-|---6----------|----------|-3-4--6-6-|---6-6-|------|
A|-------|-6---6--------|-1/4--4-4-|----------|-6-----|------|
E|-------|-------4-4--4-|----------|----------|-------|-2--4-|

Chorus

G|------|---------6-|------|-----------|----------|-------||------|-----------|
D|------|---3/4/6---|------|---------6-|----------|------.||------|-----------|
A|-4--4-|-4---------|------|---3/4/6---|-2-2-1----|------.||------|-----------|
E|------|-----------|-4--4-|-4---------|------4--2|-2--2--||-6--6-|-6-4-2--2-4|

Guitar Solos

G|-------|---------||
D|-------|--------.||
A|-3-4-4-|--------.||
E|-------|-2--4-4--||


| /  slide up
| \  slide down
| h  hammer-on
| p  pull-off
| ~  vibrato
| +  harmonic
| x  Mute note

That's about all of it. Good Luck. E-mail me at * if you want help. Thanks -Nic
================================================================================
00:00 / 00:00
Otros videos de esta canción
Repetir
Otros videos de esta canción
Composición de Donald Fagen / Walter Becker
25 vistas

0 comentarios

Ver todos los comentarios

¿Lograste tocar?

0 Tocaron 0 Aún no

¡Graba un video tocando Midnight Cruiser y envíanoslo!

00:00 / 00:00
OK