Cifra Club

Don't Ask Me To Grow Another Heart

Steinar Albrigtsen

Cifrado: Principal (guitarra y guitarra eléctrica)
tono: C
This is the ultimate acoustic song!! 
 
 
Intro (2x) 
   Am              F           G               Am        Am/G 
e|-------1s3-3s1----------0--1--------3-----------------------:| 
B|-----1-3s5-5s3-1---------1------1-0-------------1--------1--:| 
G|----2------------0--0h2---2----0---0--0--------2--0h2-2-----:| 
D|---2-------------------3------0--------0h1s2--2--2-----2----:| 
A|--0----0-----------3-------------------------0----0---------:| 
E|------------------1-1--------3--------------------------3-3-:| 
 
Am                    Am/G F 
It's easy for you to say time will heal all wounds 
G                                     Am  
I'm not really made that way, I never got immune 
                         Am/G F 
When I love to give it all, maybe I'm a fool 
G                            Am 
Like a raging waterfall, not a swimming-pool 


 
Refrão -------------
 F              C                G 
Don't ask me to grow another heart 
 F              C                G 
Don't ask me to grow another heart 
C                 G           F 
I've got nothing left inside to attempt to start 
G                             C 
Don't ask me to grow another heart
--------------------
 
 
 
Instrumental 
 
heart...  
  C      G/B Am              F           G               Am  
e|------0----------1s3-3s1----------0--1--------3---------------------- 
B|----1----3--1--1-3s5-5s3-1---------1------1-0-------------1-------1-- 
G|---0--------2-2------------0--0h2---2----0---0--0--------2--0h2-2---- 
D|--2----------2-------------------3------0--------0h1s2--2--2-----2--- 
A|-3----3--2--0----0-----------3-------------------------0----0-----0-- 
E|----------------------------1-1--------3----------------------------- 
 
 
You can drift away like mist, without looking back 
Every promise every kiss, just a papersack 
Is there blood inside those veins, conscience in that soul 
Are there feelings that feel pain, are you capable? 
 
Chorus 
 
Instrumental (same as first) 
 
 
You say as sure as rain someone new I'll meet 
Like a channel I can change, this is not T.V. 
 
 
 F              C                G 
Don't ask me to grow another heart 
 F              C                G 
Don't ask me to grow another heart 
C                 G           F 
I've got nothing left inside to attempt to start 
G                             Am 
Don't ask me to grow another heart 
G                              C 
Don't ask me to grow another heart
00:00 / 00:00
Otros videos de esta canción
Repetir
Otros videos de esta canción
Compositor no encontrado.
50 exhibiciones
    • ½ Tono
    • A
    • Bb
    • B
    • C
    • Db
    • D
    • Eb
    • E
    • F
    • F#
    • G
    • Ab
  • Agregar a la lista
    00:00 / 00:00
    OK