Cifra Club

Blackbird

Stephen Bennett

Cifrado: Principal (guitarra y guitarra eléctrica)
tono: C

Verse
e|----------------------------------------------------------------|
B|--0-----1-----3/----12-----12------12-----12-----12------12-----|
G|-----0-----0-----0------0--------------0------0--------------0--|
D|----------------------------------------------------------------|
A|--------0-----2/----10---------10---------10---------10---------|
E|--3-------------------------------------------------------------|

e|--3--3--3--3----3/10-------------10---------------------------|
B|----------------3/8-----8----8---8----9----9----10--8--10--8--|
G|--4--4--5--5--------------------------------------------------|
D|----------------------9--------9----8--------8----------------|
A|--------0----0--2/10-------------10---------------------------|
E|--3-----------------------10------------10------8------9------|

e|-------------10--------------------------------------------8-----8------|
B|--10--8--13-----12------12---12------12----10-----12/8-----8-----8---0--|
G|-----------------------------------------------------------9-----8---0--|
D|-------------------9-------9----9-------9------------------10----10--0--|
A|-----------------------------------------------------------10----10-----|
E|--10-----11-----12---12------11---11-------10-10--------8--8--8--8------|

e|----------5--7--5h7p5/3----5--3-6p5p3-3--3--|
B|--8-----8---------------5----------------3--|
G|------7----------------------------------4--|
D|----0----------------------0-------------5--|
A|-------------0---------------------------5--|
E|--7-----7--------------------------------3--|

Chorus
e|--------------------------------------------------------|
B|--8-----------8-----------8--------8----8---------8-----|
G|-----0-----0-----0-----0-------7--------------9---------|
D|-----------------------------8-------8-----10-------10--|
A|--8-----7-----5-----------------------------------------|
E|--------------------8-----6------6------8-------8-------|

e|---------------------------------------0----15--13-10-13--10-10----------|
B|-8-----------8-----------8--------8----5------------------------13-11----|
G|----0-----0-----0-----0-------7--------6------------------------------10-|
D|----------------------------8-------8--7---------------------------------|
A|-8-----7-----5-----------------------------------------------------------|
E|-------------------8-----6------6----------------------------------------|

e|------|
B|--12--|
G|--12--|
D|--12--|
A|------|
E|------|

| /  slide up
| \  slide down
| h  hammer-on
| p  pull-off
| ~  vibrato
| +  harmonic
| x  Mute note
Compositor não encontrado.
Colaboración y revisión:
  • Níkolas Zonta
55 vistas
    • ½ Tono
    • A
    • Bb
    • B
    • C
    • Db
    • D
    • Eb
    • E
    • F
    • F#
    • G
    • Ab
  • Agregar a la lista

    0 comentarios

    Ver todos los comentarios

    ¿Lograste tocar?

    1 Tocaron 0 Aún no

    ¡Graba un video tocando Blackbird y envíanoslo!

    00:00 / 00:00
    Outros vídeos desta música
    Repetir Calidad Automático
    Outros vídeos desta música
    00:00 / 00:00
    Automático
    OK