Cifra Club

Lying in the sun

Stereophonics

Cifrado: Principal (guitarra y guitarra eléctrica)
Selo Cifra Club: esta cifra foi revisada para atender aos critérios oficiais da nossa Equipe de Qualidade.
tono: D
Intro:

E|-------2-------------2-----/-------2-------------2-----/-------2-------------2-----/-------2-------------2--|
B|----0----0--------3---3---/----0----0--------3---3--/----0----0--------3---3---/----0----0--------3---3-----|
G|--2-------------4----------/--2-------------4----------/--2-------------4----------/--2-------------4-------|
D|--0------------------------/--0------------------------/---0------------------------/---0-------------------|
A|-----------------------------/----------------------------/----------------------------/--------------------|
E|-----------------------------/----------------------------/----------------------------/--------------------|

Verse 1:

E|-------2-------------2-----/-------2-------------2-----/-------2-------------2-----/-------2-------------2--|
B|----0----0--------3---3---/----0----0--------3---3--/----0----0--------3---3---/----0----0--------3---3-----|
G|--2-------------4----------/--2-------------4----------/--2-------------4----------/--2-------------4-------|
D|--0------------------------/--0------------------------/---0------------------------/---0-------------------|
A|-----------------------------/----------------------------/----------------------------/--------------------|
E|-----------------------------/----------------------------/----------------------------/--------------------|

Wish that I....

E|-------0-------------0-----/-------0-------------0-----/-------0-------------0-----/-------0-------------0--|
B|----0----0--------3---3---/----0----0--------3---3--/----0----0--------3---3---/----0----0--------3---3-----|
G|--2-------------4----------/--2-------------4----------/--2-------------4----------/--2-------------4-------|
D|--0------------------------/--0------------------------/---0------------------------/---0-------------------|
A|-----------------------------/----------------------------/----------------------------/--------------------|
E|-----------------------------/----------------------------/----------------------------/--------------------|

Wish that I....

E|-------2-------------2-----/-------2-------------2---------|
B|----0----0--------3---3---/----0----0--------3---3---------|
G|--2-------------4----------/--2-------------4--------------|
D|--0------------------------/--0----------------------------|
A|-----------------------------/-----------------------------|
E|-----------------------------/-----------------------------|

air...


Verse 2:

same as verse 1
I'd have a drink...

Prechorus:

E|---0---0---0---0----0--0----/---0---0---0---0----0--0-----------------------------|
B|---2---2---2---3----3--3----/---2---2---2---3----3--3-----------------------------|
G|---0---0---0---0----0--0----/---0---0---0---0----0--0-----------------------------|
D|---2---2---2---2----2--2----/---2---2---2---2----2--2-----------------------------|
A|---0---0---0---0----0--0----/---0---0---0---0----0--0-----------------------------|
E|--------------------------------/-------------------------------------------------|

Same things as anyone                Same things as anyone

Chorus:

    /G6                     /G6                          /D                 / A7
Otros videos de esta canción
    29 exhibiciones
      • ½ Tono
      • A
      • Bb
      • B
      • C
      • Db
      • D
      • Eb
      • E
      • F
      • F#
      • G
      • Ab
    • Agregar a la lista

    Afinação da cifra

    Afinador online

      Ops (: Contenido disponible solo en portugués.
      OK