Cifra Club

Maybe Tomorrow

Stereophonics

Cifrado: Principal (guitarra y guitarra eléctrica)
Selo Cifra Club: esta cifra foi revisada para atender aos critérios oficiais da nossa Equipe de Qualidade.
tono: Gm
[Intro] Eb7M  Cm  Gm  F
        Eb7M  Cm  Gm  F

[Tab Intro]

E|------------------6---------------------------------|
B|------6-6----8--------8-------6-6----8--------------|
G|--5h7-----7-----7--------5h7------7-----7p5-5-------|
D|----------------------------------------------------|
A|----------------------------------------------------|
E|----------------------------------------------------|

E|------------------6---------------------------------|
B|------6-6----8--------8-------6-6----8--------------|
G|--5h7-----7-----7--------5h7------7-----7p5-5-------|
D|----------------------------------------------------|
A|----------------------------------------------------|
E|----------------------------------------------------|

E|------------------6---------------------------------|
B|------6-6----8--------8-------6-6----8--------------|
G|--5h7-----7-----7--------5h7------7-----7p5-5-------|
D|----------------------------------------------------|
A|----------------------------------------------------|
E|----------------------------------------------------|

E|------------------6---------------------------------|
B|------6-6----8--------8-------6-6----8--------------|
G|--5h7-----7-----7--------5h7------7-----7p5-5-------|
D|----------------------------------------------------|
A|----------------------------------------------------|
E|----------------------------------------------------|

[Primeira Parte]

Eb7M
     I've been down and I'm wondering why
      Cm
These little black clouds keep walking around
      Gm       F
With me, with me

Eb7M
     It wastes time and I'd rather be high
           Cm
Think I'll walk me outside 
                               Gm
And buy a rainbow smile but be free
              F
They're all free

Eb7M             Cm
     So maybe tomorrow
             Gm  F
I'll find my way home
Eb7M             Cm
     So maybe tomorrow
              Gm  F
I'll find my way home

Eb7M
     I look around at a beautiful life
         Cm
Been the upperside of down been the inside 
                Gm
Of out but we breathe
     F
We breathe

Eb7M
     I wanna breeze and an open mind 
          Cm
I wanna swim in the ocean
                        Gm
Wanna take my time for me
    F
All me

Eb7M             Cm
     So maybe tomorrow
              Gm  F
I'll find my way home
Eb7M             Cm
     So maybe tomorrow
              Gm  F
I'll find my way home

[Solo] Cm  D7  Gm  F
       Cm  D7  Gm  F  Gm
       Eb7M  Cm  Gm

[Tab - Solo]

E|----------------------------------------------------|
B|-----6--6h8~-------6--8b10~-------------------------|
G|-5/7-----------5/7----------------------------------|
D|----------------------------------------------------|
A|----------------------------------------------------|
E|----------------------------------------------------|

E|----------------------------------------------------|
B|----10b11r10p8-10b11r10p8-11/10r8-6~----------------|
G|5/7-------------------------------------------------|
D|----------------------------------------------------|
A|----------------------------------------------------|
E|----------------------------------------------------|

E|----------------------------------------------------|
B|-----6-8-6h8~-------6-8-8b10~----6-8-10b11r10p8-----|
G|-5/7-----------5/7----------5/7---------------------|
D|----------------------------------------------------|
A|----------------------------------------------------|
E|----------------------------------------------------|

E|----------------------------------------------------|
B|10b11r10p8-10b11-11-11-11-11-11-11r10p8p6h8~--------|
G|----------------------------------------------------|
D|----------------------------------------------------|
A|----------------------------------------------------|
E|----------------------------------------------------|

E|----------------------------------------------------|
B|----------------------------------------------------|
G|----------------------------------------------------|
D|----------------------------------------------------|
A|--5h8/10-5h8/10----5h8/10-5h8/10--------------------|
E|----------------------------------------------------|

E|----------------------------------------------------|
B|----------------------------------------------------|
G|----------------------------------------------------|
D|----------------------------------------------------|
A|--5h8/10-5h8/10----5h8/10-5h8/10--------------------|
E|----------------------------------------------------|

E|----------------------------------------------------|
B|----------------------------------------------------|
G|----------------------------------------------------|
D|----------------------------------------------------|
A|--5h8/10-5h8/10----5h8/10-5h8/10--------------------|
E|----------------------------------------------------|

E|----------------------------------------------------|
B|----------------------------------------------------|
G|----------------------------------------------------|
D|----------------------------------------------------|
A|--5h8/10-5h8/10----5h8/10-5h8/10--------------------|
E|----------------------------------------------------|

Eb7M             Cm
     So maybe tomorrow
             Gm  F
I'll find my way home
Eb7M             Cm
     So maybe tomorrow
             Gm  F
I'll find my way home

Eb7M             Cm
     So maybe tomorrow
             Gm  F
I'll find my way home
Eb7M             Cm
     So maybe tomorrow
             Gm  F
I'll find my way home

[Final] Eb7M  Cm  Gm  F
        Eb7M  Cm  Gm  F
        Eb7M  Cm  Gm  F
00:00 / 00:00
Otros videos de esta canción
Repetir
Otros videos de esta canción
11.167 exhibiciones
  • Simplificar cifrado
    • ½ Tono
    • Am
    • Bbm
    • Bm
    • Cm
    • C#m
    • Dm
    • Ebm
    • Em
    • Fm
    • F#m
    • Gm
    • G#m
  • Agregar a la lista

Afinación de cifrado

Afinador online

    00:00 / 00:00
    OK