Cifra Club

Cowboy Bebop - Call Me Call Me

Steve Conte

Cifrado: Principal (guitarra y guitarra eléctrica)
Selo Cifra Club: esta cifra foi revisada para atender aos critérios oficiais da nossa Equipe de Qualidade.
tono: Eb
E|------------------------------------------------------------------|

Intro
             Bbadd9
E|-----|-----1-----1---1---|
B|-----|-----1---4---4-----|
G|-1h3-|-----3-------------|
D|-----|-----3-------------| repeat
A|-----|-1-1-1-------------|
E|-----|-------------------|

Verse
   Bbadd9          C#add9          Ebadd9          G#
E|-1-----1---1---|-4-------------|-6-------------|-4-------------|
B|-1---4---4-----|-4---4-6-4-6---|-6-----6---6---|-4---4-6-4-6---|
G|-3-------------|-6-------------|-8---8---8-----|-5-------------|
D|-3-------------|-6-------------|-8-------------|-6-------------| repeat
A|-1-------------|-4-------------|-6-------------|-6-------------|
E|---------------|---------------|---------------|-4-------------|

PreChorus
   Gm           Dm           Fm           C
E|-3----------|-5----------|-1----------|-0----------|
B|-3----------|-6----------|-1----------|-1----------|
G|-3----------|-7----------|-1----------|-0----------|
D|-5----------|-7----------|-3----------|-2----------| repeat
A|-5----------|-5----------|-3----------|-3----------|
E|-3----------|------------|-1----------|------------|

Chorus
   Cm        Bb        F
E|-3-------|-1-------|-1----------------|
B|-4-------|-3-------|-1----------------|
G|-5-------|-3-------|-2----------------|
D|-5-------|-3-------|-3----------------| repeat 3 times
A|-3-------|-1-------|-3----------------| then play
E|---------|---------|-1----------------|
   F         Bb        F   Bb  C
E|-1-------|-1-------|-1---1---0--------|
B|-1-------|-3-------|-1---3---1--------|
G|-2-------|-3-------|-2---3---0--------|
D|-3-------|-3-------|-3---3---2--------| go right back into the verse
A|-3-------|-1-------|-3---1---3--------|
E|-1-------|---------|-1----------------|

Here are the chord changes with lyrics:

Verse


Bbadd9                     C#add9                  Ebadd9            
G#          (repeat)
I close my eyes ...
dreams

PreChorus
Gm         Dm     Fm                  C   (repeat)
Call me, call me, let me know it's alright

Chorus
Cm   Bb   F   Cm Bb   F                   Cm    Bb  F               
Ease my mind, reasons for me to find you, peace of mind,
           F Bb  F      Bb  C
what can I do to get me to you
Otros videos de esta canción
    40 exhibiciones
      • ½ Tono
      • A
      • Bb
      • B
      • C
      • Db
      • D
      • Eb
      • E
      • F
      • F#
      • G
      • Ab
    • Agregar a la lista

    Afinación de cifrado

    Afinador online

      OK