Cifra Club

Valparaiso

Sting

Cifrado: Principal (guitarra y guitarra eléctrica)
Selo Cifra Club: esta cifra foi revisada para atender aos critérios oficiais da nossa Equipe de Qualidade.
tono: D
E|-------------------------------------2---3-------|
B|---------------------5-------3-------------------|
G|---------------------------------------------4---|
D|----2-----4--5-----------------------------------|
A|-------------------------------------------------|
E|-------------------------------------------------|

E|----------------------------------------------------|
B|---------3--2--------0---2--3---0-------------------|
G|----2------------2---------------------0-----4------|
D|----------------------------------------------------|
A|----------------------------------------------------|
E|----------------------------------------------------|

E|-------------------------------2----3--------|
B|---------------------5----3------------------|
G|------------------------------------------4--|
D|----2------4---5-----------------------------|
A|---------------------------------------------|
E|---------------------------------------------|

E|--------------------------------------------------------|
B|--------------------5--3--5-3-1----0--------------------|
G|---------------0---------------------------2-----0------|
D|--2-----4-----------------------------------------------|
A|--------------------------------------------------------|
E|--------------------------------------------------------|

E|---------------------------------------------------|
B|---------------------5----3------0-----------------|
G|----------------------------------------2----0-----|
D|----2------4--5---------------------------------2--|
A|---------------------------------------------------|
E|---------------------------------------------------|

E|-----7---7---5----5---3---3---2---2---0---0------|
B|-------------------------------------------------|
G|-------------------------------------------------|
D|-------------------------------------------------|
A|-------------------------------------------------|
E|-------------------------------------------------|

Ending:

E|--8---8---7---7---5---5---3---3---2---2---0--|
B|---------------------------------------------|
G|---------------------------------------------|
D|---------------------------------------------|
A|---------------------------------------------|
E|---------------------------------------------|


Lyrics:

Chase the dog star
Over the sea
Home where my true love is waiting for me
Rope the south wind
Canvas the stars
Harness the moonlight
So she can safely go
Round the Cape Horn to Valparaiso

Red the port light
Starboard the green
How will she know of the devils I've seen
Cross in the sky, star of the sea
Under the moonlight, there she can safely go
Round the Cape Horn to Valparaiso
Valparaiso


And every road I walked would take me down to the sea
With every broken promise in my sack
And every love would always send the ship of my heart
Over the rolling sea

If I should die
And water's my grave
She'll never know if I'm damned or I'm saved
See the ghost fly over the sea
Under the moonlight, there she can safely go
Round the Cape Horn to Valparaiso

Valparaiso
Valparaiso
Valparaiso
Otros videos de esta canción
    22 exhibiciones
      • ½ Tono
      • A
      • Bb
      • B
      • C
      • Db
      • D
      • Eb
      • E
      • F
      • F#
      • G
      • Ab
    • Agregar a la lista

    Afinación de cifrado

    Afinador online

      OK