Cifra Club

Driving South

The Stone Roses

Cifrado: Principal (guitarra y guitarra eléctrica)
tono: E
Guitarist:John Squire

Intro:

e|----------------------|------------------------|
b|----------------------|------------------------|
g|----------------------|------------------------|
d|----------------------|------------------------| X4
a|----------------------|------------------------|
E|-3bp0-5bp0-3b-0-3-5-3-|-3bp0-5bp0-3b-0-3-3-3-5-|

e|----------------------|------------------------|
b|----------------------|------------------------|
g|----------------------|------------------------|
d|----------------------|------------------------| X1
a|-3bp0-5bp0-3b-0-3-5-3-|-3bp0-5bp0-3b-0-3-3-3-5-|
E|----------------------|------------------------|

e|----------------------|------------------------|
b|----------------------|------------------------|
g|----------------------|------------------------|
d|----------------------|------------------------| X1
a|----------------------|------------------------|
E|-3bp0-5bp0-3b-0-3-5-3-|-3bp0-5bp0-3b-0---------|

e|----------------------------|-------------------------------|
b|-----0----------------------|-------------------------------|
g|-2b-----2br2p0-----2b-r2-p0-|-------------------------------|
d|----------------2-----------|-2p0--2p0--------------------0-|
a|----------------------------|-----------2p0--0--0--0h2p0----|
E|----------------------------|-------------------------------|

e|----------------------------|-------------------------------|
b|----------------------------|-------------------------------|
g|----------------------------|-------------------------------|
d|------0---0h2p0-------2-----|-2--2-------0--0h2p0-----------|
a|-0h2-------------2p0--------|-------0h2------------2p0------|
E|-------------------------0--|---------------------------3p0-|




Verse:

e|------------------------------|-12-x-12-----------------------|
b|----7/9--7/9------------------|--9-x--9-----------------------|
g|----7/9--7/9--9-9-7-7---------|--9-x--9-----------------------|
d|----------------------9-9-8-7-|--9-x--9--9-9-7-7--------------|
a|------------------------------|------------------10-10-9-7~---|
E|-0----------------------------|-------------------------------|
            
e|----------------------------|---------------------|
b|----------------------------|---------------------|
g|----------------------------|---------------------|
d|------7sb----7h9p7----------|---------------------|
a|-7h10---------------7h10p7--|-7-7-5-7-7--5h7-5h7--|
E|----------------------------|---------------------|

e|----------------------------|-------------------------|
b|-10b-8---8h10p8-------------|-------------------------|
g|-------9--------9-7---------|--------9-9h11p9---------|
d|--------------------9-------|-9-9/11----------11-9-7~-|
a|----------------------------|-------------------------|
E|----------------------------|-------------------------|

e|----------------------------|-----------------------------------|
b|----------------------------|-----------------------------------|
g|---------9-9h11p9-----------|--------{9h11p9--}X4--9h11p9--11b~-|
d|-9-9/11-----------11-9-9~---|-9-9/11-{-------9}-----------------|
a|----------------------------|-----------------------------------|
E|----------------------------|-----------------------------------|


Symbol Key:
b - Bend
sb - Slow bend
h - Hammer On
p- Pull off
bp - First bend the string and then pull off
/ - Slide
x - Mute the string with left hand
~ - Vibrato

Email: *

Email me if you want to use it on your own site
00:00 / 00:00
Otros videos de esta canción
Repetir
Otros videos de esta canción
Composición de John Squire
44 vistas
    • ½ Tono
    • A
    • Bb
    • B
    • C
    • Db
    • D
    • Eb
    • E
    • F
    • F#
    • G
    • Ab
  • Agregar a la lista

    0 comentarios

    Ver todos los comentarios

    ¿Lograste tocar?

    0 Tocaron 0 Aún no

    ¡Graba un video tocando Driving South y envíanoslo!

    00:00 / 00:00
    OK