Cifra Club

Sally Cinnamon

The Stone Roses

Cifrado: Principal (guitarra y guitarra eléctrica)
tono: G
INTRO: 
E|---------------------------------------------------------------- 
B|---------3--------------------------------------------------3--- 
G|--------------5----4-----5---4-----5---4----5---4---2---0------- 
D|---5------------------------------------------------------------ X2 
A|---------------------------------------------------------------- 
E|---------------------------------------------------------------- 
 
E|-------------------------------- 
B|-------------------------------- 
G|---5---4----5---4---2---0------- 
D|-------------------------------- 
A|-------------------------------- 
E|-------------------------------- 
 
G                       C 
Until Sally I was never happy 
                  G 
I needed so much more 
                           C 
rain clouds oh they use to chase me 
                G 
down they would pour       E|------------------------------------ 
                           B|--------------------12-------------- 
                           G|-----12---14---12--------14---12---- 
                           D|------------------------------------ 
                           A|------------------------------------ 
                           E|------------------------------------ 
 
 
 
        C 
join my tears              E|--------------------------------------- 
                           B|-------------5---------------5--------- 
                           G|-----5---7-------7---5---7-------7---5- 
                           D|--------------------------------------- 
                           A|--------------------------------------- 
                           E|--------------------------------------- 
G        C 
allay my fears 
D 
sent to me from heaven 
C                        G     C    G   C 
sally cinnamon you're my world 
 
 
Pop, pop, pop, pop, blow blow bubble gum 
you taste of cherryade 
there is something hey you must show me 
from what you are made 
sugar and spice 
and all things nice 
 
sent to me from heaven 
sally cinnamon you're my world 
 
SOLO: 
E|------------------------------------------------------------------ 
B|------------------------------------------13-----12--------------- 
G|---2--/---12------12-----14----12--------------------12----12--12- 
D|------------------------------------------------------------------ 
A|------------------------------------------------------------------ 
E|------------------------------------------------------------------ 
 
E|----------------------------------------------------------------- 
B|--13---12------------13-----12-------------13---12--------------- 
G|---------------12---------------------12-----------------12------ 
D|----------------------------------------------------------------- 
A|----------------------------------------------------------------- 
E|----------------------------------------------------------------- 
 
E|----------------------------------------------------------------- 
B|----------------------------------------------------------------- 
G|--12--12---12-----12----14---12----14----12---14---12--12-------- 
D|----------------------------------------------------------------- 
A|----------------------------------------------------------------- 
E|----------------------------------------------------------------- 
 
E|----------------------------------------------------------------- 
B|--13---12--------------------------------15--15--15--15---------- 
G|----------------12-------12--12--12------------------------------ 
D|----------------------------------------------------------------- 
A|----------------------------------------------------------------- 
E|----------------------------------------------------------------- 
 
E|----------------------------------------------------------------- 
B|--13---12-----13-----12------------------------------------------ 
G|---------------------------------12------------------------------ 
D|----------------------------------------------------------------- 
A|----------------------------------------------------------------- 
E|----------------------------------------------------------------- 
 
D 
you're eyes are gazing back 
C 
from every little piece of glass 
D 
you seem to smile from every blade 
C                           G   C    G   C 
sally cinnamon, you are my world 
 
G                       C 
then I put the letter back 
G                         C 
in the place where it was found 
G                   C 
in the pocket of a jocket 
G               C 
of a train in town 
 
D 
sent to her from heaven 
C                         G 
sally cinnamon you're her world
00:00 / 00:00
Otros videos de esta canción
Repetir
Otros videos de esta canción
Composición de Ian Brown / John Squire
209 vistas
    • ½ Tono
    • A
    • Bb
    • B
    • C
    • Db
    • D
    • Eb
    • E
    • F
    • F#
    • G
    • Ab
  • Agregar a la lista

    0 comentarios

    Ver todos los comentarios

    ¿Lograste tocar?

    1 Tocaron 0 Aún no

    ¡Graba un video tocando Sally Cinnamon y envíanoslo!

    00:00 / 00:00
    OK