Cifra Club

Fare Thee Well

Stone Temple Pilots

Cifrado: Principal (guitarra y guitarra eléctrica)
Selo Cifra Club: esta cifra foi revisada para atender aos critérios oficiais da nossa Equipe de Qualidade.
tono: C (con acordes en la forma de G) Capotraste en 5ª casa
[Tab - Intro]

Parte 1 De 3
E|-2--------0-------------------------------|
B|-3---3-3--3---3-3--3---3--3-0--0---0--0-0-|
G|-2---2----0---0-0--0---0--0-0--0---0--0-0-|
D|-0---0----0---0----0h2-2--0-/4-4/2-0--0-0-|
A|--------------------------------------2---|
E|------------------------------------------|

Parte 2 De 3
E|-2--------0-------------------------------|
B|-3---3-3--3---3-3--3---3--3-0--0---0--0-0-|
G|-2---2----0---0-0--0---0--0-0--0---0--0-0-|
D|-0---0----0---0-0--0h2-2--0-/4-4/2-0--0-0-|
A|----------------0h2-------------------2---|
E|------------------------------------------|

Parte 3 De 3
E|-2---3--2---------------------------------|
B|-3---3----3-------------------------------|
G|-2---2------2-----------------------------|
D|-0---0------------------------------------|
A|------------------------------------------|
E|------------------------------------------|

           G         D
Fare thee well so long
         A              Bm
Hate to say goodbye to you
         G           D
I can tell you're gone
         A              Bm
By the way I'm missing you
                G               C#°   D
Don't you realize you're everything to me?

           Bm             F#m                    G
Got my heart out in my hand and don't you know it?
   Em             A                D
Something deep inside's Come over me
          Bm            F#m           G
I'm gonna sacrifice my soul just to show it
                 D               A
Can you try to tell me what it means?

               Bm   F#m
Could this be love? Love?
G           D
Coming over me
G           D
Coming over me
               F#
Could this be love?

             G       D
When you're gone, I found
          A               Bm
A part of me is there with you
        G           D
Are you still all mine?
              A              Bm
I hope you're telling me the truth
           G                     C#°         D
'Cause the saddest thing is when love goes away

           Bm             F#m                    G
Got my heart out in my hand and don't you know it?
   Em             A                D
Something deep inside's come over me
          Bm            F#m           G
I'm gonna sacrifice my soul just to show it
                 D               A
Can you try to tell me what it means?

               Bm   F#m
Could this be love? Love?
G           D
Coming over me
G           D
Coming over me
               F#
Could this be love?

Fare Thee Well

[Solo] G  D  A  Bm 
       G  D  A  Bm 
       G  C#°  D

Bm             F#m                    G
Got my heart out in my hand and don't you know it?
   Em             A                D
Something deep inside's come over me
          Bm            F#m           G
I'm gonna sacrifice my soul just to show it
                 D               A
Can you try to tell me what it means?

               Bm   F#m
Could this be love? Love?
G           D
Coming over me
G           D
Coming over me
               F#
Could this be love?

           G         D
Fare thee well so long
         A              Bm
Hate to say goodbye to you
         G           D
I can tell you're gone
         A              Bm
By the way I'm missing you
                G               C#°      D
Don't you realize you're everything to me?
                G               C#°      D
Don't you realize you're everything to me?
00:00 / 00:00
Otros videos de esta canción
Repetir
Otros videos de esta canción
6.674 exhibiciones
    • ½ Tono
    • A
    • Bb
    • B
    • C
    • Db
    • D
    • Eb
    • E
    • F
    • F#
    • G
    • Ab
  • Agregar a la lista

Afinación de cifrado

Afinador online

    00:00 / 00:00
    OK