Cifra Club

Interstate love song

Stone Temple Pilots

Cifrado: Principal (guitarra y guitarra eléctrica)
tono: E
[Intro] C#m  E  A  A4(7/9)  G#  A  E

E|------------------------------------|
B|------------------------------------|
G|------------------------------------|
D|--11~---9--11--9--------------------|
A|------------------11---9--/7~-------|
E|------------------------------------|

E|------------------------------------|
B|------------------------------------|
G|------------------------------------|
D|--------10--13--13b14---11~---------|
A|-9--11------------------------------|
E|------------------------------------|

(Riff 1)

E|---0--0--0----------0--|
B|-2/3--2--0--0------0---|
G|------------2--1h2-----|
D|-----------------------| (Riff 1 + Riff 2 2x)
A|-----------------------|
E|-----------------------|

(Riff 2)

E|--0--0--0--| --0-0-0-0-0-0---|---0--0--0--|
B|--0--0--0--| --0-0-0-0-0-0---|---0--0--0--|
G|--1--2--1--| --1-1-1-1-1-1---|---1--2--1--|
D|--2--4--2--| --2-2-2-2-2-2---|---2--4--2--|
A|--2--4--2--| --2-2-2-2-2-2---|---2--4--2--|
E|--0--0--0--| --0-0-0-0-0-0---|---0--0--0--|

C#m             G#/C
Waiting on a Sunday afternoon
    C#/B                      Bbm5b/7
For what I've read between the lines
     A9
Your lies

C#m             G#/C
Feelin' like a hand in rusted shame
   C#/B                      Bbm5b/7
So do you laugh or does it cry?
    A9
Reply?

(Riff 2 - Riff 1 - Riff 2)

C#m          E
Leavin' on a southern train
     A9            G#
Only yesterday you lied
A9                  E
Promises of what I seemed to be
     A9               G#
Only watched the time go by
A9                       E
All of these things you said to me

(Riff 1 - Riff 2)[x2] 

C#m             G#/C
Breathing is the hardest thing to do.
     C#/B                      
With all I've said and
          Bbm5b/7
All that's dead for you
    A9  (Riff 2)      A9
You lied             Goodbye

(Riff 2)

C#m          E
Leavin' on a southern train
     A9             G#
Only yesterday, you lied
A9                  E
Promises of what I seemed to be
     A9               G#
Only watched the time go by
A9                     E
All of these things I said to you

(Riff 1 - Riff 2)

(Intro Alternativa - Slide Guitar)

E|-----------------------------------------------------0-|
B|--------------------------------------4~-4/5/4~------0-|
G|--4/6~--4--4/6/4~------------------5~------------6~--1-|
D|------------------6--4/2~--4-4/6~--------------------2-|
A|-----------------------------------------------------2-|
E|-----------------------------------------------------0-|
Composición de Robert DeLeo / Scott Weiland
27.089 vistas
    • ½ Tono
    • A
    • Bb
    • B
    • C
    • Db
    • D
    • Eb
    • E
    • F
    • F#
    • G
    • Ab
  • Agregar a la lista

    0 comentarios

    Ver todos los comentarios

    ¿Lograste tocar?

    22 Tocaron 1 Aún no

    ¡Graba un video tocando Interstate love song y envíanoslo!

    00:00 / 00:00
    Outros vídeos desta música
    Repetir Calidad Automático
    Outros vídeos desta música
    00:00 / 00:00
    Automático
    OK