Cifra Club

Plush

Stone Temple Pilots

Cifrado: Principal (guitarra y guitarra eléctrica)
Selo Cifra Club: esta cifra foi revisada para atender aos critérios oficiais da nossa Equipe de Qualidade.
tono: G
[Introdução] G5  Bbº  C6  G (4x)

    G5      Bbº  C6      G
E|-3--3----3----3--3----3----3-3-3----------|
B|-3--3----2----1--1----0----0-1-2----------|
G|-0--0----3----2--2----0-------------------|
D|------------------------------------------|
A|------------------------------------------|
E|------------------------------------------|

    G5      Bbº  C6      G
E|-3--3----3----3--3----3----3-3-3----------|
B|-3--3----2----1--1----0----0-1-2----------|
G|-0--0----3----2--2----0-------------------|
D|------------------------------------------|
A|------------------------------------------|
E|------------------------------------------|

    G5      Bbº  C6      G
E|-3--3----3----3--3----3----3-3-3----------|
B|-3--3----2----1--1----0----0-1-2----------|
G|-0--0----3----2--2----0-------------------|
D|------------------------------------------|
A|------------------------------------------|
E|------------------------------------------|

    G5      Bbº  C6      G
E|-3--3----3----3--3----3-------------------|
B|-3--3----2----1--1----0-------------------|
G|-0--0----3----2--2----0-------------------|
D|------------------------------------------|
A|------------------------------------------|
E|------------------------------------------|


[Primeira Parte]

G5        D/F#
   And I feel
      F                 C  Eb7M
That time's a wasted go
                        F    G5
So where are you going to tomorrow?
       D/F#
And I see
       F                C   Eb7M
That these are lies to come
            F
Would you even care?


[Ponte]

(Guitarra Riff)
    D5      C9    G/B   C9
E|------------------------------------------|
B|-3-----3-----3-----3----------------------|
G|-2---2-----0-----0------------------------|
D|-0----------------------------------------|
A|---------3-----2-----3---2-3-0------------|
E|------------------------------------------|

    D5      C9    G/B   C9
E|------------------------------------------|
B|-3-----3-----3-----3----------------------|
G|-2---2-----0-----0------------------------|
D|-0----------------------------------------|
A|---------3-----2-----3---2-3-0------------|
E|------------------------------------------|

    D5      C9    G/B   C9
E|------------------------------------------|
B|-3-----3-----3-----3----------------------|
G|-2---2-----0-----0------------------------|
D|-0----------------------------------------|
A|---------3-----2-----3---2-3-0------------|
E|------------------------------------------|

    D5      C9    G/B   C9
E|------------------------------------------|
B|-3-----3-----3-----3----------------------|
G|-2---2-----0-----0------------------------|
D|-0----------------------------------------|
A|---------3-----2-----3---2-3-0------------|
E|------------------------------------------|

( D9  C9  G/B  C9 )

       D9  C9  G/B  C9
And I feel it

( D9  C9  G/B  C9 )

       D9  C9  G/B  C9
And I feel it


[Segunda Parte]

Eb7M
     Where are you going
       F      Eb7M
For tomorrow?

Where are you going
           F            Eb7M
With that mask I found?

And I feel, and I feel
          F                      Eb7M
When the dogs begin to smell her
                 F
Will she smell alone?


[Interlúdio] G5  Bbº  C6  G (2x)

    G5      Bbº  C6      G
E|-3--3----3----3--3----3----3-3-3----------|
B|-3--3----2----1--1----0----0-1-2----------|
G|-0--0----3----2--2----0-------------------|
D|------------------------------------------|
A|------------------------------------------|
E|------------------------------------------|

    G5      Bbº  C6      G
E|-3--3----3----3--3----3-------------------|
B|-3--3----2----1--1----0-------------------|
G|-0--0----3----2--2----0-------------------|
D|------------------------------------------|
A|------------------------------------------|
E|------------------------------------------|


[Terceira Parte]

G5        D/F#
   And I feel
    F                   C      Eb7M
So much depends on the weather
                      F    G5
So, is it raining in your bedroom?
       D/F#
And I see
       F                    C
That these are the eyes of disarray
Eb7M             F
     Would you even care?


[Ponte]

(Guitarra Riff)
    D5      C9    G/B   C9
E|------------------------------------------|
B|-3-----3-----3-----3----------------------|
G|-2---2-----0-----0------------------------|
D|-0----------------------------------------|
A|---------3-----2-----3---2-3-0------------|
E|------------------------------------------|

    D5      C9    G/B   C9
E|------------------------------------------|
B|-3-----3-----3-----3----------------------|
G|-2---2-----0-----0------------------------|
D|-0----------------------------------------|
A|---------3-----2-----3---2-3-0------------|
E|------------------------------------------|

    D5      C9    G/B   C9
E|------------------------------------------|
B|-3-----3-----3-----3----------------------|
G|-2---2-----0-----0------------------------|
D|-0----------------------------------------|
A|---------3-----2-----3---2-3-0------------|
E|------------------------------------------|

    D5      C9    G/B   C9
E|------------------------------------------|
B|-3-----3-----3-----3----------------------|
G|-2---2-----0-----0------------------------|
D|-0----------------------------------------|
A|---------3-----2-----3---2-3-0------------|
E|------------------------------------------|

( D9  C9  G/B  C9 )

       D9  C9  G/B  C9
And I feel it

( D9  C9  G/B  C9 )

         D9   C9  G/B  C9
And she feels it


[Quarta Parte]

Eb7M
     Where are you going
       F      Eb7M
For tomorrow?

Where are you going
           F            Eb7M
With that mask I found?

And I feel, and I feel
          F                      Eb7M
When the dogs begin to smell her
                 F
Will she smell alone?


[Primeiro Refrão]

(Guitarra Riff)
    G5                 F5
E|-----------------------------------------------------|
B|-----------------------------------------------------|
G|--------7---------------7-----7----------------------|
D|----7h9---9----9------7---7---7---7------------------|
A|-10---------10---10-8-------X------------------------|
E|-----------------------------------------------------|
    C/E             Eb5   D5
E|-----------------------------------------------------|
B|-----------------------------------------------------|
G|-----5---5-----------5-5h7---5-----------------------|
D|---5---5---5---5---5-------5---5---------------------|
A|-7-----------7---6---------------6-------------------|
E|-----------------------------------------------------|
    G5                 F5
E|-----------------------------------------------------|
B|-----------------------------------------------------|
G|--------7---------------7-----7----------------------|
D|----7h9---9----9------7---7---7---7------------------|
A|-10---------10---10-8-------X------------------------|
E|-----------------------------------------------------|
    C/E             Eb5   D5
E|-----------------------------------------------------|
B|-----------------------------------------------------|
G|-----5---5-----------5-5h7---5-----------------------|
D|---5---5---5---5---5-------5---5---------------------|
A|-7-----------7---6---------------6-------------------|
E|-----------------------------------------------------|
    G5                 F5
E|-----------------------------------------------------|
B|-----------------------------------------------------|
G|--------7---------------7-----7----------------------|
D|----7h9---9----9------7---7---7---7------------------|
A|-10---------10---10-8-------X------------------------|
E|-----------------------------------------------------|
    C/E             Eb5   D5
E|-----------------------------------------------------|
B|-----------------------------------------------------|
G|-----5---5-----------5-5h7---5-----------------------|
D|---5---5---5---5---5-------5---5---------------------|
A|-7-----------7---6---------------6-------------------|
E|-----------------------------------------------------|
    G5                 F5
E|-----------------------------------------------------|
B|-----------------------------------------------------|
G|--------7---------------7-----7----------------------|
D|----7h9---9----9------7---7---7---7------------------|
A|-10---------10---10-8-------X------------------------|
E|-----------------------------------------------------|
    C/E             Eb5   D5
E|-----------------------------------------------------|
B|-----------------------------------------------------|
G|-----5---5-------5h7---5-----------------------------|
D|---5---5---5---5-5-----5-----------------------------|
A|-7-----------7---6-----------------------------------|
E|-----------------------------------------------------|

G5           F5              C/E
   When the dogs do find her
           Eb5     D5         G5    F5
Got time, time to wait for tomorrow
            C/E             Eb5
To find it,     to find it
    D5
Ro find it

G5           F5              C/E
   When the dogs do find her
           Eb5     D5         G5    F5
Got time, time to wait for tomorrow
            C/E             Eb5
To find it,     to find it
    D5
To find it


[Interlúdio] G5  Bbº  C6  G (4x)

    G5      Bbº  C6      G
E|-3--3----3----3--3----3----3-3-3----------|
B|-3--3----2----1--1----0----0-1-2----------|
G|-0--0----3----2--2----0-------------------|
D|------------------------------------------|
A|------------------------------------------|
E|------------------------------------------|

    G5      Bbº  C6      G
E|-3--3----3----3--3----3----3-3-3----------|
B|-3--3----2----1--1----0----0-1-2----------|
G|-0--0----3----2--2----0-------------------|
D|------------------------------------------|
A|------------------------------------------|
E|------------------------------------------|

    G5      Bbº  C6      G
E|-3--3----3----3--3----3----3-3-3----------|
B|-3--3----2----1--1----0----0-1-2----------|
G|-0--0----3----2--2----0-------------------|
D|------------------------------------------|
A|------------------------------------------|
E|------------------------------------------|

    G5      Bbº  C6      G
E|-3--3----3----3--3----3-------------------|
B|-3--3----2----1--1----0-------------------|
G|-0--0----3----2--2----0-------------------|
D|------------------------------------------|
A|------------------------------------------|
E|------------------------------------------|


[Quinta Parte]

Eb7M
     Where are you going
       F      Eb7M
For tomorrow?

Where are you going
           F            Eb7M
With that mask I found?

And I feel, and I feel
          F                      Eb7M
When the dogs begin to smell her
                 F
Will she smell alone?


[Segundo Refrão]

G5           F5              C/E
   When the dogs do find her
           Eb5     D5         G5    F5
Got time, time to wait for tomorrow
            C/E             Eb5
To find it,     to find it
    D5
To find it

G5           F5              C/E
   When the dogs do find her
           Eb5     D5         G5    F5
Got time, time to wait for tomorrow
            C/E             Eb5
To find it,     to find it
    D5
To find it


[Final] G5  Bbº  C6  G (4x)

    G5      Bbº  C6      G
E|-3--3----3----3--3----3----3-3-3----------|
B|-3--3----2----1--1----0----0-1-2----------|
G|-0--0----3----2--2----0-------------------|
D|------------------------------------------|
A|------------------------------------------|
E|------------------------------------------|

    G5      Bbº  C6      G
E|-3--3----3----3--3----3----3-3-3----------|
B|-3--3----2----1--1----0----0-1-2----------|
G|-0--0----3----2--2----0-------------------|
D|------------------------------------------|
A|------------------------------------------|
E|------------------------------------------|

    G5      Bbº  C6      G
E|-3--3----3----3--3----3----3-3-3----------|
B|-3--3----2----1--1----0----0-1-2----------|
G|-0--0----3----2--2----0-------------------|
D|------------------------------------------|
A|------------------------------------------|
E|------------------------------------------|

    G5      Bbº  C6      G
E|-3--3----3----3--3----3-------------------|
B|-3--3----2----1--1----0-------------------|
G|-0--0----3----2--2----0-------------------|
D|------------------------------------------|
A|------------------------------------------|
E|------------------------------------------|
Otros videos de esta canción
    733.782 exhibiciones
      • ½ Tono
      • A
      • Bb
      • B
      • C
      • Db
      • D
      • Eb
      • E
      • F
      • F#
      • G
      • Ab
    • Agregar a la lista

    Afinación de cifrado

    Afinador online

      Capítulos
      • Tocando a Música
      • Apresentação / Equipamentos
      • Acordes Introdução
      • Tocando Introdução
      • Ensinando Introdução
      • Acordes Primeira Parte
      • Tocando Primeira Parte
      • Ritmo Primeira Parte
      • Acordes Ponte
      • Tocando Ponte
      • Ensinando Ponte
      • Ritmo Ponte
      • Tocando Segunda Parte
      • Ritmo Segunda Parte
      • Acordes Refrão
      • Tocando Interlúdio - Refrão
      • Ritmo Refrão
      • Ensinando Riff Refrão
      • Encerramento
      OK