Cifra Club

Sex Type Thing

Stone Temple Pilots

Cifrado: Principal (guitarra y guitarra eléctrica)
tono: G
(Scott Weiland)

h = Hammer on 
\ = slide down
x = dead note

Intro : Intro Riff  
Verso : Riff 1
Refrão : Riff 2
Ponte : Riff 3
Final : End Riff

Intro Riff :

E|-------------------------------------------|
B|-------------------------------------------|
G|-------------------------------------------|
D|-------------------------------------------|
A|-----2-----1-----0------------------------|
E|--0-----0-----0-----0--3--2h3--2h3----|

Riff 1 :

E|----------------------------------------------------------|
B|----------------------------------------------------------|
G|----------------------------------------------------------|
D|---4--4--4--4--4--4--4--4--4--4--x--x---4--4--4---|
A|---4--4--4--4--4--4--4--4--4--4--x--x---4--4--4---|
E|---0--2--0--2--0--2--2--2--2--2--x--x---2--2--2---|

Depois de tocar o Riff 1 algumas vezes, 
vem um riffzinho mais ou menos assim :

E|-----------------------|
B|-----------------------|
G|----------4-5---------|
D|---2--4--------------|
A|----------------------|
E|----------------------|

Riff 2 :
        
       B5        A5   D5                
E|------------------------|
B|------------------------|
G|-------------------7---|
D|---4--------7-----7---|
A|---4--------7-----5---|
E|---2--------5----------|

Riff 3 :

E|--------------------------------------------------------------------------------------|
B|--------------------------------------------------------------------------------------|
G|-------------------------------------------------------------9-9-9-9-9-9-9-9-9---|
D|-----------------------------------------9-9-9-12-12-12--------------------------|
A|---7-7-7-9-9-9-11-11-11-12-12-12--------------------------------------------|
E|-------------------------------------------------------------------------------------|

End Riff :

Tocar várias vezes o Intro Riff e depois isso :

E|-----------------------|
B|-----------------------|
G|---9--9--9--9--9\---|
D|---9--9--9--9--9\---|
A|---7--7--7--7--7\---|
E|-----------------------|

Você vai tocar mais ou menos isso aqui :

Intro Riff - 4 vezes
Riff 1 - 4 vezes
Intro Riff  - 4 vezes
Riff 1 - 4 vezes
Riff 2 - 4 vezes
Intro Riff - 4 vezes
Riff 1 - 4 vezes
Riff 2 - 4 vezes
Riff 3 - 2 vezes
Riff 1- 4 vezes
Riff 2 - 8 vezes
Riff 3 - 2 vezes
Intro Rff - 8 vezes
End Riff 

Letra :

I am, I am, I am
I said I wanna get next to you
I said I wanna get close to you
You wouldn't want me have to
hurt you too?

I ain't, I ain't, I ain't
A buyin' into your apathy
I'm gonna learn ya my philosophy
You wanna know about atrocity?

I know you want what's on my
mind
I know you want what's on my
mind
I know it eats you up inside
I know, you know, you know

I am a man, a man
I'll give ya somethin' that ya won't
forget
I said ya shouldn't have worn that
dress
I said ya shouldn't have worn that
dress

Here I come, I come, I come
Composición de Dean DeLeo / Eric Kretz / Scott Weiland
Colaboración y revisión:
  • Guilherme
1.158 vistas
    • ½ Tono
    • A
    • Bb
    • B
    • C
    • Db
    • D
    • Eb
    • E
    • F
    • F#
    • G
    • Ab
  • Agregar a la lista

    0 comentarios

    Ver todos los comentarios

    ¿Lograste tocar?

    3 Tocaron 1 Aún no

    ¡Graba un video tocando Sex Type Thing y envíanoslo!

    00:00 / 00:00
    Outros vídeos desta música
    Repetir Calidad Automático
    Outros vídeos desta música
    00:00 / 00:00
    Automático
    OK