Cifra Club

Porcelain God

Stradley

Cifrado: Principal (guitarra y guitarra eléctrica)
tono: E
#



Date: Tue, 10 Dec 1996 18:06:48 -0500 (EST)
From: Tom Alspach 

written and tabbed by Tom Alspach and lyrics prepared by Ryan Johnson.
Timing is a little off, listen to the CD and you should be able to piece it
together.  The solo is killer, I'll try to tab it later.  For now you should
be able to fake it through it.


Tune all strings down 1/2 step.

Explanation: / and \ are slides up an down.

Played during the beginning, verse and after solo:
Eb-------------------------------------------------------------------------|
Bb-------------------------------------------------------------------------|
Gb--------12------------12----------12--------12---------------------------|
Db-----12----12------12----------12----12----------------------------------| x6
Ab--12------------12----------12-----------12------------------------------|
Eb-------------------------------------------------------------------------|

Now comes the choruse riff:
Eb-------------------------------------------------------------------------|
Bb-------------------------------------------------------------------------|
Gb-------------------------------------------------------------------------|
Db--------2--------4-------3-----3-----2--------4--------3--3----2---------|
Ab--12\2--2--------4-------3-----3-----2--------4--------3--3----2---------|
Eb--------0--0-0-0-2-0-0-0-1-0-0-1-0-0-0----0-0-2-0-0-0--1--1----0--0-0-0--|

Eb--------------------------------------------------------------------------|
Bb--------------------------------------------------------------------------|
Gb--------------------------------------------------------------------------|
Db--4-------3-----3-----2--------4-------3-3-3-3--2-2--3---3---3---3-2-2----|
Ab--4-------3-----3-----2--------4-------3-3-3-3--2-2--3---3---3---3-2-2/12-|
Eb--2-0-0-0-1-0-0-1-0-0-0----0-0-2-0-0-0-1-1-1-1--0-0--1-0-1-0-1-0-1-0-0----|

Return to verse rhythm after a whole rest.

Here are the lyrics:

Verse 1
It was a Friday night
Chillin' in by room, drinkin' some brews
It was a Friday night
I layed back
Closed my eyes
When the world started spinnin'
To my suprise
It was a Friday night. . .
Oh no another Friday night of. . .

Chorus 1
PRAYIN'!
Prayin' to the porcelain God
I was prayin' mother f*ucker!
Prayin' mother f*ucker
Prayin to the Porcelain god. . . dammit
Mother f*ck you!
I'm dyin' mother f*cker
Listen to me!
Listen

Verse 2
I threw up my lunch
I threw up my dinner
I threw up my mother f*ckin' innards
Oh God noooooo!

Chorus 2
I was Prayin'
Prayin' to the porcelain God
I was prayin' mother f*cker
Prayin' mother f*cker
Prayin' to the porcelain God

F*ck you bitch.
00:00 / 00:00
Otros videos de esta canción
Repetir
Otros videos de esta canción
Compositor no encontrado.
10 vistas
    • ½ Tono
    • A
    • Bb
    • B
    • C
    • Db
    • D
    • Eb
    • E
    • F
    • F#
    • G
    • Ab
  • Agregar a la lista

    0 comentarios

    Ver todos los comentarios

    ¿Lograste tocar?

    0 Tocaron 0 Aún no

    ¡Graba un video tocando Porcelain God y envíanoslo!

    00:00 / 00:00
    OK