Cifra Club

Eagleheart

Stratovarius

Tablatura: Principal (guitarra)
Já pensou em usar uma coleção de roupas do Cifra Club? Responda as perguntas abaixo e nos ajude nessa missão! →
tono: E
NOTAS:
======

"h"   = Hammer-On
"p"   = Pull-Off
"/"   = Slide Up
""   = Slide Down
"~"   = Vibrato
"~~"  = MUITO Vibrato
"b()" = Bend até a nota dentro dos parênteses
"x"  = Slide da Palheta (mais uma palheta que vai pro lixo... :) )

---
---
-.-
-9- => Stacatto (um PONTO acima de uma nota)
---
---

*********************************************************************

Intro:

*****
SOLO:
*****
     É o que tá escrito, só seguir e você terá o solo inicial! :)

e||--------------------------------------------------------------------------------------------|
B||--9~-9~--12-12~-10--9-h10p9----------10-10~-9-h10p9--------/12--10-9--------9~-b(10)r9------|
G||----------------------------11~-11~-----------------11--9~------------11-9-------------11~~-|
D||--------------------------------------------------------------------------------------------|
A||--------------------------------------------------------------------------------------------|
E||--------------------------------------------------------------------------------------------|

e||----------------------------------------------------------------------------|
B||--9h10p9----9~-9~--12-12~--10-9-h10p9----------10-10~--9-h10p9-------/12--10|
G||---------11---------------------------11~-11~------------------11-9~--------|
D||----------------------------------------------------------------------------|
A||----------------------------------------------------------------------------|
E||----------------------------------------------------------------------------|


*****
BASE:
*****

Dê umas 5 batidas em cada acorde, mais ou menos assim:
1 batida, depois duas seguidas rapidas, e mais duas seguidas
rapidas... fica mais ou menos parecido, escute a musica pra
pegar o jeito.

                             /-------------------P.M.-------------------
e||-----------------------||-------------------------------------------------------------|
B||-----------------------||-------------------------------------------------------------|
G||-6--2--4--------/9-----||-6-------2-------4-------------------------------/9~~--------|
D||-6--2--4--4--7--/9--9~-||-6-------2-------4-------6-------7-------9-------/9~~--------|
A||-4--0--2--4--7--/7--9~-||-4-4-4---0-0-0---2-2-2---6-------7-------9-------/7~~--7-6~--|
E||----------6--5------7~-||-------------------------4-4-4---5-5-5---7-7-7---------------|

Nota: O tremolo do final é para segurar o máximo que der, 
      pra ficar de fundo no verso.



Versos:
      Durante o verso NÃO TEM GUITARRA, SÓ BAIXO e TECLADO, ou seja, a guitarra base 
      fica coçando enquanto isso.
      Antes dos versos, temos a bridge ou "quase-bridge" (a última só tem
      no final do primeiro verso), você segura o último acorde o máximo que der,
      pra ficar de fundinho nos versos.


Finalzim do primeiro verso (a "quase-bridge"):
      Quando o carinha disser "And his eyes...", a base faz isso:

e||-------||---------|
B||-------||---------|
G||-------||---------|
D||--2~~--||---------|
A||--2~~--||---------|
E||--0~~--||--3~-2~--|


Verso 1:
       Repete as instruções acima citadas sobre o verso. Segure a última nota 
       da "quase-bridge" o máximo que voce puder, e fica nisso.


Bridge:

e||--------------------------------------------------------|
B||--------------------------------------------------------|
G||--------------------------------------------------------|
D||---2~~----------7~---------9-9-9-9-9-9-9-9-9-9---------|
A||---2~~----------7~---------9-9-9-9-9-9-9-9-9-9---7-6~--|
E||---0~~---3~-2~--5~--4~-5~--7-7-7-7-7-7-7-7-7-7---------|

       Agora se joga para o refrão!!!


Refrão:
      Quase igual à intro (NAO VAI FAZER IGUAL QUE VAI FICAR UM LIXO!)...

                             /-------------------P.M.-------------------
e||-----------------------||-------------------------------------------------------------|
B||-----------------------||-------------------------------------------------------------|
G||-6--2--4--------/9-----||-6-------2-------4-------------------------------/9~~--------|
D||-6--2--4--4--7--/9--9~-||-6-------2-------4-------6-------7-------9-------/9~~--------|
A||-4--0--2--4--7--/7--9~-||-4-4-4---0-0-0---2-2-2---6-------7-------9-------/7~~--7-6~--|
E||----------6--5------7~-||-------------------------4-4-4---5-5-5---7-7-7---------------|


SOLO:
     Agora entra o Super-Mantovani com sua Super-Guitarra para fazer seu Super-Solo Super-Difícil:

e||-------------------------------------14-/16-12----------------------------------------16-/19-19~-17-17~--16-16~--14-14~------------------|
B||----------------------------14h16h17------.--.-14----------------------------14h16h17------------------------------------17--16-17p16p14-|
G||-13----------------------13---------------------.-13----------------------13-------------------------------------------------------------|
D||----14p13p1110/11h13h14---------------------------.-14p13p1110/11h13h14----------------------------------------------------------------|
A||-----------------------------------------------------------------------------------------------------------------------------------------|
E||-----------------------------------------------------------------------------------------------------------------------------------------|


e||-------------------------------------14-/16-12----------------------------------------16-/19~--19-2116~---16-19|
G||---------------------------14-h16h17------.--.-14----------------------------14h16h17----------------------------|
B||-13----------------------13---------------------.-13----------------------13-------------------------------------|
D||---14p13p1110/11h13h14----------------------------.-14p13p1110/11h13h14----------------------------------------|
A||-----------------------------------------------------------------------------------------------------------------|
E||-----------------------------------------------------------------------------------------------------------------|

Verso 3:
        Siga as instruções dos versos anteriores, acima explanadas.

Bridge:
        Siga as instruções das bridges anteriores, acima explanadas.

Refrão:
        Siga as instruções dos refrões anteriores, acima explanadas.


Agora entra a guitarra 1 com o solo inicial, toca 1 vez normal, depois 
toca desse jeito e vai abaixando o volume (fading)...

e||--19-19~-17--16-h17p16p14~-14~-/17-17~-16-h17p16-14h16p14-----/-19--17--16-h17p16-14-----16~-b(17)r16-14~~--14-16-17-14/16~-16~--19-19~-17--16-h17p16p14~-14~--/-|
B||----------------------------------------------------------17~-------------------------17-------------------------------------------------------------------------|
G||-----------------------------------------------------------------------------------------------------------------------------------------------------------------|
D||-----------------------------------------------------------------------------------------------------------------------------------------------------------------|
A||-----------------------------------------------------------------------------------------------------------------------------------------------------------------|
E||-----------------------------------------------------------------------------------------------------------------------------------------------------------------|

e||--17-17~--16-h17p16-14------/-19--17--16-h17p16p14----------/-16-14~--/16~-16~--19-19~--17--16-h17p16p14~-14~-/17-17~--16-h17p16p14-------/-19--17--16-h17p16-14-----||
B||-----------------------17~-------------------------17-17~----------------------------------------------------------------------------17~-------------------------17--||
G||---------------------------------------------------------------------------------------------------------------------------------------------------------------------||
D||---------------------------------------------------------------------------------------------------------------------------------------------------------------------||
A||---------------------------------------------------------------------------------------------------------------------------------------------------------------------||
E||---------------------------------------------------------------------------------------------------------------------------------------------------------------------||

FIM....


LETRA:

****************************************************
All through the night he is lying awake
Wond'ring how much more can he take
Watching the walls where shadows dance
Drifting away into a trance.

And his eyes are blazing with fire

Dreams burnt to ashes so many times
Highest of mountains, still he climbs
Ready to fly cause he just can't stay
Flame burning brighter with every day

And his eyes are blazing with fire
Longinng for the deepest desire

Heart of an eagle
He flies through the rainbow
Into a new world and finds the sun
Spreading his wings above all the sorrows
The glory of Eagleheart

Fever is burning in his veins
Determined with courage breaking the chains
Back against the wall under blood red skies
Prepared to fight until he dies.

Heart of an eagle
He flies through the rainbow
Into a new world and finds the sun
Spreading his wings above all the sorrows
The glory of Eagleheart

Heart of an eagle
He flies through the rainbow
Into a new world and finds the sun
Spreading his wings above all the sorrows
The glory of Eagleheart
****************************************************
Composição de Kotipelto / Tolkki
360 reproducciones
    • ½ Tono
    • A
    • Bb
    • B
    • C
    • Db
    • D
    • Eb
    • E
    • F
    • F#
    • G
    • Ab
  • Adicionar à lista

    0 comentarios

    Ver todos os comentários

    ¿Conseguiste tocar?

    3 Tocaram 0 Ainda não

    Grave um vídeo tocando Eagleheart e nos envie!

    00:00 / 00:00
    outros vídeos desta música
    repetir qualidade Automático
    Outros vídeos desta música
    00:00 / 00:00
    Automático
    OK