Cifra Club

Greensleeves

Stratovarius

Cifrado: Principal (guitarra y guitarra eléctrica)
Selo Cifra Club: esta cifra foi revisada para atender aos critérios oficiais da nossa Equipe de Qualidade.
tono: Am
E|-----------0--1-0------------------------------------------|
B|-----1---3---------3--0-------0--1---------------0---------|
G|--2----------------------0--2--------2--2----1-2----1------|
D|-----------------------------------------------------2-----|
A|-----0-----3---------------------0------3------------------|
E|-------------------3-----3-----------------------0---------|

E|-----------0--1-0------------------------------------------|
B|-----1---3---------3--0-------0--1--0----------------------|
G|--2----------------------0--2---------2--1----1--2--2------|
D|--------------------------------------------4--------------|
A|-----0-----3---------------------0---------------0--0------|
E|-------------------3-----3---------------0-----------------|

E|--3-3--2-0-------------------------------------------------|
B|------------3--0------0--1-----------0---------------------|
G|-----------------0--2-------2-2--1-2----1------------------|
D|------------------------------------------2----------------|
A|--3-3--------------------0----3----------------------------|
E|------------3----3-------------------0---------------------|

E|--3-3--2-0-------------------------------------------------|
B|------------3--0------0--1--0------------------------------|
G|-----------------0--2---------2-1----1-2--2----------------|
D|-----------------------------------4-----------------------|
A|--3-3--------------------0-------------0--0----------------|
E|------------3----3--------------0--------------------------|
Otros videos de esta canción
    2.770 exhibiciones
      • ½ Tono
      • Am
      • Bbm
      • Bm
      • Cm
      • C#m
      • Dm
      • Ebm
      • Em
      • Fm
      • F#m
      • Gm
      • G#m
    • Agregar a la lista

    Afinação da cifra

    Afinador online

      Ops (: Contenido disponible solo en portugués.
      OK