Cifra Club

Chick On My Tip

Sublime

Tab de bajo: Principal
Album: Second Hand Smoke
Tabbed by: Boy Wonder
 
	This is a sweet song that might look familiar to anybody with knowledge of blues.  
As always, you can expect Eric to improvise throughout the entire song but these are the 
main parts.  

	Main Riff

G|---------------------------------|-------------------------------------|
D|-------------------------- 2 ----|-------------------------------------|
A|--------------------- 2 ---------|-- 3 ---- 3 --- 2 --- 0 -------------|
E|----- 0 ---- 3  -----------------|-------------------------- 3 - 2 ----|


	Secondary Riff- this is a very common blues shuffle bass line.
	If you not ever played shuffle bass you may struggle with the rhythm.
	The notes are played long-short, long-short and so on.  It may help to say 	
	humpty- dumpty as you play to get the rhythm.

G|----------------------------------|------------------------------------|
D|----------------------------------|------------------------------------|
A|--------- 4---4-5---5-6---7-------|--------4----4-5----5-6---7---------|
E|---5---5--------------------------|--5---5-----------------------------|


	Variation

G|----------------------------------|------------------------------------|
D|--------6---6-7---7-8---9---------|------------------------------------|
A|-7---7----------------------------|------------------------------------|
E|----------------------------------|------------------------------------|


As I said, I have not the ear to pick up all the variations.  This should help you get started.  
	Happy playing,
			Boy Wonder
00:00 / 00:00
Otros videos de esta canción
Repetir
Otros videos de esta canción
Composición de Brad Nowell
26 vistas

0 comentarios

Ver todos los comentarios

¿Lograste tocar?

0 Tocaron 0 Aún no

¡Graba un video tocando Chick On My Tip y envíanoslo!

00:00 / 00:00
OK