Cifra Club

Hong Kong Phooey

Sublime

Cifrado: Principal (guitarra y guitarra eléctrica)
Selo Cifra Club: esta cifra foi revisada para atender aos critérios oficiais da nossa Equipe de Qualidade.
tono: C
Intro: "Who is this Superhero..."
E|-1~----2~----------------------------------------|
B|-1~----2~----6~----------------------------------|
G|-3~----4~----6~---10-1010--7-77--5-55------------|
D|-3~----4~----6~-----------------------7-5--------|
A|-1~----2~----4~---------------------------8-5----|
E|-------------------------------------------------|

Verse/Chorus:
E|--5---5---5---5---5---5---5---5-------|
B|--6---6---6---6---6---6---6---6-------|
G|--7---7---7---7---7---7---7---7-------|
D|--7---7---7---7---7---7---7---7-------|
A|--5---5---5---5---5---5---5---5-------|
E|--------------------------------------|

Bridge:
E|---------------------------------|
B|---------------------------------|
G|-10-1010--7-77--5-55-------------|
D|----------------------7-5--------|
A|--------------------------8-5----|
E|---------------------------------|

Verse/Chorus 2: (distortion)
E|----------------------|
B|----------------------|
G|-7777777777777777-----|
D|-7777777777777777-----|
A|-5555555555555555-----|
E|----------------------|
Otros videos de esta canción
    27 exhibiciones
      • ½ Tono
      • A
      • Bb
      • B
      • C
      • Db
      • D
      • Eb
      • E
      • F
      • F#
      • G
      • Ab
    • Agregar a la lista

    Afinación de cifrado

    Afinador online

      OK