Cifra Club

Lou Dog Went To The Moon

Sublime

Cifrado: Principal (guitarra y guitarra eléctrica)
Já pensou em usar uma coleção de roupas do Cifra Club? Responda as perguntas abaixo e nos ajude nessa missão! →
tono: E
This is the main sequence thoughout the song.
   A         D       A       E
|-------------2---------------------|
|----2----------3-----2-------0-----|
|------2----------2-----2-------1---|
|--------2-0--------------2-------2-|
|-0-----------------0---------------|
|---------------------------0-------|

Then you go into this near the end.
|--4-5-6-4--666666666--3-3/5--5/6--666--4444--|
|--4-5-6-4--666666666--3-3/5--5/6--666--4444--|
|--5-6-7-5--777777777--4-4/6--6/7--777--5555--|
|--6-7-8-6--888888888--5-5/7--7/8--888--6666--|
|--6-7-8-6--888888888--5-5/7--7/8--888--6666--|
|--4-5-6-4--666666666--3-3/5--5/6--666--4444--|

|--0-0-0--5-5-5-5--3-3-3--8--8--8--8-----7----|
|--0-0-0--5-5-5-5--3-3-3--8--8--8--8-----7----|
|--1-1-1--6-6-6-6--4-4-4--9--9--9--9-----8----|
|--2-2-2--7-7-7-7--5-5-5--10-10-10-10----9----|
|--2-2-2--7-7-7-7--5-5-5--10-10-10-10----9----|
|--0-0-0--5-5-5-5--3-3-3--8--8--8--8-----7----|
               ..Lou Dog  went to the   moon.
Compositor não encontrado.
21 vistas
    • ½ Tono
    • A
    • Bb
    • B
    • C
    • Db
    • D
    • Eb
    • E
    • F
    • F#
    • G
    • Ab
  • Agregar a la lista

    0 comentarios

    Ver todos los comentarios

    ¿Lograste tocar?

    0 Tocaron 0 Aún no

    ¡Graba un video tocando Lou Dog Went To The Moon y envíanoslo!

    00:00 / 00:00
    Outros vídeos desta música
    Repetir Calidad Automático
    Outros vídeos desta música
    00:00 / 00:00
    Automático
    OK