Cifra Club

Aprenda

Seed

Sublime

Tablatura: Principal (guitarra)
Tom: G
(verse 1)

Am                         F
Janie always said I was a mess
                 G
sorry about that mess
           C      Am                 Dm
I made her bleed    I'm planting my seed
        G
still I knew she could take it
      C                     Am
if I opened up the rhythm I knew it could make it
F              G                C
but I hope her parents love her so

(verse 2)
Am                              F
Feelin' all the acid on the brain
                    G
still I got that frame
           C                         Am
I made her bleed yeah she wants that lovin' you see
            Dm                          G
well if you live you wanna give or get old
           C                      Am
and if you never knew that we get old
            Dm                         G
you live it up you live it up you get old
  C                      Am
believe me people when I say
           F                        G
that every people asking Satan everyday
         C              Am
but if I got to know my place
            Dm                  G
and if you don't it smacks you in your face
F          G
I know her parents love her and
F          G
I hope her parents love her
Bb         F                Am
I hope her parents love her so

(solo)
                  |--Hold--|                           |--Hold--|
                  |        |                           |        |
E|------------------------------------------------------------------------------|
B|--------13-15-15b17-17-17r15-13-15-----------13-13-15b17-17-17r15-13h15p13-15-|
G|--14-14-----------------------------------14----------------------------------|
D|------------------------------------15-15-------------------------------------|
A|------------------------------------------------------------------------------|
E|------------------------------------------------------------------------------|

      (10x)                                  |-Hold-|
                                             |      |
E|---------12---|-------------------------------------------------------------|
B|---15b17------|-------------------------------------------------------------|
G|*------------*|-------5-7-7b9-9r7-5--------5-7b9-9-9r7-5-7-5-7--------------|
D|*------------*|--7-7---------------------7----------------------3~~~--7~~~--|
A|--------------|----------------------8-8------------------------------------|
E|--------------|-------------------------------------------------------------|

(verse 3)
Am                  F
Billyed back in 1983
                    G
What did you do for me
           C         Am                      D
I made her bleed  ah lovin' I'm planting my seed
  G
I knew we could make it
C                      Am
I only knew that the bitch would break it
F               G                Am
Yeah I hope her parents love her so
               F               G
my God look at me if he had to go
           C                Am
I know I'm barely lovin' my holy  creed
    Dm                   G
you never knew that was what you need
C         Am
Oh my God honestly
Dm                 G
believe it or not it's a disease
F          G
I hope her parents love her
Bb         F               Am
I hope her parents love her so
Compositor Sublime
Colaboración y revision:
  • vinicios silva
239 reproducciones
    • ½ Tom
    • A
    • Bb
    • B
    • C
    • Db
    • D
    • Eb
    • E
    • F
    • F#
    • G
    • Ab
  • Adicionar à lista

    0 comentarios

    Mostrar mais comentários

    ¿Conseguiste tocar?

    1 Tocaron 0 Ainda não

    Grave um vídeo tocando Seed e mande pra gente!

    00:00 / 00:00
    outros vídeos desta música
    repetir qualidade Automático
    Outros vídeos desta música
    00:00 / 00:00
    Automático
    OK