Cifra Club

Aprenda

Smoke Two Joints

Sublime

Tab de bajo: Versão 2
Tabbed By : tiv0
e-mail: *

Tuning: Standard EADG

Note: A note in parentheses [ex.=(7)] means that the note is sometimes played, but not always.

Intro
G|-------------------------------------|
D|-------------------------------------|   3X
A|-------------------------------------|
E|--5-5-5-8-8-8-5-5--0-0-0-3-3-3-0-0---|

G|----------------------------|
D|----------------------------|   1X
A|----------------------------|
E|--5-5-5-8-8-8-5-5--3--4-5---|

Verse
G|-----------------------------------------|
D|-----------------------------------------|   2X
A|-----------------------------------------|
E|--5--5-5-5-5-55\--1--1-1-1-1--1--3-4-5---|

G|------------------------------------|
D|------------------------------------|   4X
A|-----(7)-(7)---------(3)------------|
E|--5--5-5-5-5-55\--1--1-1-1-1--1-3---|

Fill
G|-----------|
D|-----------|
A|-----------|
E|--3--4-5---|

Verse
G|-----------------------------------------|
D|-----------------------------------------|   2X
A|-----(7)-(7)---------(3)-----------------|
E|--5--5-5-5-5-55\--1--1-1-1-1--1--3-4-5---|

G|------------------------------------|
D|------------------------------------|   4X
A|-----(7)-(7)---------(3)------------|
E|--5--5-5-5-5-55\--1--1-1-1-1--1-3---|

REST (Hell No!)

G|------------------------------------|
D|------------------------------------|   2X
A|-----(7)-(7)---------(3)------------|
E|--5--5-5-5-5-55\--1--1-1-1-1--1-3-3-|

Change
G|-------------------------------------|
D|-------------------------------------|   1X
A|-------9-----9-----7-----------------|
E|--7-7-7-7-7-7---5-5-5-5--------------|

G|------------|
D|------------|   1X
A|------------|
E|--10--8-7---|

Verse
G|------------------------------------|
D|------------------------------------|   4X
A|-----(7)-(7)---------(3)------------|
E|--5--5-5-5-5-55\--1--1-1-1-1--1-3---|

Interlude
G|------------------------|
D|------------------------|   10X
A|----77777777-5-7--------|
E|--5---------------------|

End
G|-------------------------------------|
D|-------------------------------------|   3X
A|-------------------------------------|
E|--5-5-5-8-8-8-5-5--0-0-0-3-3-3-0-0---|

G|----------------------------|
D|----------------------------|   1X
A|----------------------------|
E|--5-5-5-8-8-8-5-5--3--4-5---|

Key:
\ slide down

Questions or comments, please email me.
============================================================================
Compositor Michael Kay
4 reproducciones

0 comentarios

Mostrar mais comentários

¿Conseguiste tocar?

0 Tocaron 0 Ainda não

Grave um vídeo tocando Smoke Two Joints e mande pra gente!

00:00 / 00:00
outros vídeos desta música
repetir qualidade Automático
Outros vídeos desta música
00:00 / 00:00
Automático
OK