Cifra Club

Divinorum

Sugar Kane

Cifrado: Principal (guitarra y guitarra eléctrica)
Já pensou em usar uma coleção de roupas do Cifra Club? Responda as perguntas abaixo e nos ajude nessa missão! →
tono: Ab (con acordes en la forma de A) Afinación: Eb Ab Db Gb Bb Eb
Intro:
E|-----------------------------------------------------0------------------
B|-----------------------------------------------------0------------------
G|--------------4/6--6-6--4--4--4--4---------------------------7-7-x-7-7-x  (4x)
D|----4---4--4-------------------------7--7--7---2--2----2-2---7-7-x-7-7-x
A|----4---4--4--2/4--4-4--2--2--2--2-------------2--2----2-2---5-5-x-5-5-x
E|--0h2---0--2-------------------------5--5--5---0--0----0-0--------------


Solo do final da introdução

E|-------------
B|-------------
G|-------------
D|-4-2---------
A|----4-2--4-2-
E|-------------

Riff 1

E|-----------
B|-----------
G|----------- (4x)
D|-----------
A|-----------
E|-2--0-2-5-2

VERSO

(Duas batidas e o resto em palm mute)

F#                   F
Acreditei em uma história que eu mesmo inventei
E                    B                             D  (Sem palm mute)
Acreditei em uma mentira que criei pra te deixar ficar
          F* (em power riff)
Mas a verdade é que preciso te falar

F#  A               E*
Eu achei que estava certo me entregando a você
F#  A               E*
Descobri que estava apenas me escondendo de viver
F#  A               E*
Agora entendo eu nunca tive medo de me machucar
F#  A               E*                    D   Db   F#   Ab   A
Prefiro sentir saudades, prefiro me arriscaaaaaaaaaaar

D       Db         F#          Ab  A
Em algo mágico que traga algum alívio
D       Db              E*
Existe a dor eu sei mas encontrei você

REFRÃO

F#                 E*
Pra me anestesiar, pra me entorpecer
D                  A         B
Pra me fazer ignorar os meus problemas
F#                 E*
Pra me envenenar e pra me distrair
D                  A         B
Pra me fazer acreditar que vale a pena

(riff 1)

VERSO

REFRÃO

(Trecho somente com o baixo)

REFRÃO

INTRO

(riff 1 terminando pela metade e adicionando o power chord de B no final)
Composición de Sugar Kane
Colaboración y revisión:
  • joseph
  • Rafael Tanaka
68 vistas
    • ½ Tono
    • A
    • Bb
    • B
    • C
    • Db
    • D
    • Eb
    • E
    • F
    • F#
    • G
    • Ab
  • Agregar a la lista

    0 comentarios

    Ver todos los comentarios

    ¿Lograste tocar?

    1 Tocaron 0 Aún no

    ¡Graba un video tocando Divinorum y envíanoslo!

    00:00 / 00:00
    Outros vídeos desta música
    Repetir Calidad Automático
    Outros vídeos desta música
    00:00 / 00:00
    Automático
    OK