Cifra Club

Medo

Sugar Kane

Tab de bajo: Principal
Já pensou em usar uma coleção de roupas do Cifra Club? Responda as perguntas abaixo e nos ajude nessa missão! →
Intro  2x (no ritimo da introdução)

G|----------------------------------------------------------
D|----------------------------------------------------------
A|--222222--------555555---------------------555555-444444--
E|---------333333--------555555-333333333333----------------


Antes do verso  2x

G|---------2-4-2---4-2---------------------------
D|-----2-4-------4-----4/5-2---------------------
A|-2-5-----------------------5-0-2---------------
E|-----------------------------------------------


Verso  2x

G|----------------------------------------------------------
D|----------------------------------------------------------
A|--222222--------555555---------------------555555-444444--
E|---------333333--------555555-333333333333----------------


Pré-refrão  8x

G|---------------------------------------------
D|---------44-2-4/5555--44-2-4/5-------777777--
A|--222222-----------------------5555----------
E|---------------------------------------------


Refrão  2x                                    1x

G|------------------------------------------  ---------------------
D|------------------------------------------  ---------------------
A|------------------22222222-55555555-------  ---------------------
E|--3333----5555----------------------------  --33333333-55555555--


Repete desde a introdução até o refrão


Outro

G|---------------------------------------------------
D|---------------------------------------------------
A|--222...--Repete-isso-até-começar-o-ultimo-refrão--
E|---------------------------------------------------


Ultimo Refrão

G|----------------------------------------------------------  -----
D|----------------------------------------------------------  -----
A|--222222--------555555---------------------555555-444444--  --2--
E|---------333333--------555555-333333333333----------------  -----

_______________________________________________________
Contribuição: Vinny da banda Long Space(vinny@longspace.zzn.com)
Composición de Capilé / Rodrigo
20 vistas

0 comentarios

Ver todos los comentarios

¿Lograste tocar?

1 Tocaron 0 Aún no

¡Graba un video tocando Medo y envíanoslo!

00:00 / 00:00
Outros vídeos desta música
Repetir Calidad Automático
Outros vídeos desta música
00:00 / 00:00
Automático
OK