Cifra Club

Answer The Phone

Sugar Ray

Cifrado: Principal (guitarra y guitarra eléctrica)
Selo Cifra Club: esta cifra foi revisada para atender aos critérios oficiais da nossa Equipe de Qualidade.
tono: Db
Tab: By Anquier

Tune: Standart

- Solo Intro:

e|----------------------------------------------------------------
B|----------------------------------------------------------------
G|------8------8--------8------8--------8------8-------8------8---
D|----6---6--6---6----6---6--6---6----6---6--6---6---6---6--6---6-
A|------------------6---------------8--------------4--------------
E|-4--------------------------------------------------------------

- RIFF 1 - Com efeito de Distorção: (2x)

   G#                               D#
e|------------------------------------------------------------------------------
B|------------------------------------------------------------------------------
G|----------------------------------8-8-8-8-8-8-8-8-8-8-8-8-8-8-8---------------
D|-6-6-6-6-6-6-6-6-6-6-6-6-6-6-6-6--8-8-8-8-8-8-8-8-8-8-8-8-8-8-8---------------
A|-6-6-6-6-6-6-6-6-6-6-6-6-6-6-6-6--6-6-6-6-6-6-6-6-6-6-6-6-6-6-6---------------
E|-4-4-4-4-4-4-4-4-4-4-4-4-4-4-4-4----------------------------------------------
                                                                              
   F                                               F#      C# f#       C# F#     C#
e|----------------------------------------------------------------------------------
B|----------------------------------------------------------------------------------
G|-10-10-10-10-10-10-10-10-10-10-10-10-10-10-10-10-11-11-11-6-11-11-11-6-11-11-11-6-
D|-10-10-10-10-10-10-10-10-10-10-10-10-10-10-10-10-11-11-11-6-11-11-11-6-11-11-11-6-
A|-8--8--8--8--8--8--8--8--8--8--8--8--8--8--8--8--9--9--9--4-9--9--9--4-9--9--9--4-
E|----------------------------------------------------------------------------------


(1º E 2º Verso sem Distorção)

G#
We're on this roller coaster ride
D#
Hold on I'll stay here by your side
F
We head up to the sky
F#  C#     F#   C#      F#   C#
Then we slide back down

G#
Upside down tryin' to figure out
D#
Not sure if we could work it out
F
I want to be alone
F#  C#     F#   C#      F#   C#
But you feel like home


RIFF 1 + CHORUS (com Distorção)  (2X)

Answer the phone
I know that you're home
I want to get you alone
And do it again do it again


(3º e 4º Verso sem Distorção)

G#
The signals all are flashin' red
D#
It doesn't matter what was said
F
This bed is much too big
F#  C#   F#   C#     F#   C#
Without me and you

G#
This all seems so ridiculous
D#
Why can't we just get over this?
F
Don't make me say the obvious
F#  C#   F#  C#    F#  C#
Without you.


RIFF 1 + CHORUS (com Distorção)  (2X)


- (Ponte sem Distorção)

A           E           F#m             D
I practice all my lines thru a telephone while you were sleeping
I practice all my lines thru a telephone while you were sleeping
I practice all my lines thru a telephone while you were sleeping


-Solo 2:

e|----------------------------------------------------------------
B|----------------------------------------------------------------
G|------8------8--------8------8--------8------8-------8------8---
D|----6---6--6---6----6---6--6---6----6---6--6---6---6---6--6---6-
A|------------------6---------------8--------------4--------------
E|-4--------------------------------------------------------------


- (Pre-Chorus com Distorção)

   G#                D#               C
e|---------------------------------------------------------
B|---------------------------------------------------------
G|-------------------8888888888888888----------------------
D|-66666666666666666-8888888888888888-10101010101010101010-
A|-66666666666666666-6666666666666666-10101010101010101010-
E|-44444444444444444------------------8-8-8-8-8-8-8-8-8-8--

                 C#                                                                              
e|---------------------------------------------------------
B|---------------------------------------------------------
G|---------------------------------------------------------
D|-101010101010-11111111111111111111111111111111-----------
A|-101010101010-11111111111111111111111111111111-----------
E|-8-8-8-8-8-8--9-9-9-9-9-9-9-9-9-9-9-9-9-9-9-9------------

I remember the way you curled your toes
On the side of the stage at all our shows
And the glow on your face just because of one rose
And when I wake up in the morning and you're wearing my clothes


RIFF 1 + CHORUS (com Distorção)  (2X)


-Final:


RIFF 1 (Com Distorção)

Do it Again do it Again

and Do it Again do it Again

i wanna Do it Again do it Again

and Do it Again do it Again


   F#        G#
e|-----------------|
B|-----------------|
G|-11-11-11--------|
D|-11-11-11--6-----|
A|-9--9--9---6-----|
E|-----------4-----|
Otros videos de esta canción
    72 exhibiciones
      • ½ Tono
      • A
      • Bb
      • B
      • C
      • Db
      • D
      • Eb
      • E
      • F
      • F#
      • G
      • Ab
    • Agregar a la lista

    Afinação da cifra

    Afinador online

      Ops (: Contenido disponible solo en portugués.
      OK