Cifra Club

Aprenda

Every Morning (Acustic)

Sugar Ray

Tablatura: Principal (guitarra)
Tom: B
Introdução: Solo, Solo + Base

Solo:
e---------------------------------------------------------------------
B---5-5-7-5-7-5---3-5-3-5-3---2-3-2---5-5-5-5--7---5------------------
G---4-4-4-4-4-4---2-2-2-2-2---2-2-2---6-6-6-6--6-----7-6--------------
D---------------------------------------------------------------------
A---------------------------------------------------------------------
E---------------------------------------------------------------------

Base:

   A            D            A           D9  D  D9     A
e------------0--2-2-2-2-2-0------------0--0-2-2-0-0-0 ----------------
B--2-2-2-2-2-0--3-3-3-3-3-0--2-2-2-2-2-0--3-3-3-3-3-0--2-2-2-2--------
G--2-2-2-2-2-0--2-2-2-2-2-0--2-2-2-2-2-0--2-2-2-2-2-0--2-2-2-2--------
D--2-2-2-2-2-0------------0--2-2-2-2-2-0------------0--2-2-2-2--------
A---------------------------------------------------------------------
E---------------------------------------------------------------------

A                       D
Every morning there's a halo hanging
              A                             D9 D D9  
from the corner of my girlfriends four post bed
A
I knkow it's not mine
         D                             A  
but I'll see if I can use it for the weekend
                D D9 D
or a one night stand

Esta parte da musica abaixo é tocada exatamente assim 

e-----------------------------------------------------
B-5--5-4-3--5--5-4-3--3-4-5--5-4-3--3-4-5--5-4-3------
G-4--4-3-2--4--4-3-2--2-3-4--4-3-2--2-3-4--4-3-2------  Rif:
D-----------------------------------------------------
A-----------------------------------------------------
E-----------------------------------------------------

Rif:
Couldn't understand       
how to work it out       
once again as predicted        
left my broken heart open
and you ripped it out


A
Something's got me recling
D
Stop me from believing
A               D9 D D9  
turn me around again
A
Said that we can do it
    D                     A      Solo: B: 5-5-5-5--7---5
you know i want to do it again         G: 6-6-6-6--6-----7-6
  

Base:

Sugarezay 
Aaaa aa  aaaa  (everymorning)
Aaaa aa  aaaa  (every morning when I woke up)
Aaaa aa  aaaa  (Shut the door baby, don't say a word)
Aaaa aa  aaaa  (Shut the door baby)
Shut the door baby
don't say a word

(Solo + Base) 

A                       D
Every morning there's a heartache
                 A
hanging from the corner
                             D9 D D9   
of my girlfriend's four post bed
A
I know it's not mine and I
D
know she thinks she loves me
A
but I never can believe what
        D9 D D9
she's said
A
Something so deceiving
D                D9 
When you satart believing
A                D9 D D9 
turn me arounnd again
A
Said we couldn't do it
D                        A       Solo : B: 5-5-5-5--7---5
You know I want to do it again          G: 6-6-6-6--6-----7-6
 

Base :
Aaaa aa  aaaa  (Every morning)

Aaaa aa  aaaa  (Every morning there's a halo hanging )

Aaaa aa  aaaa  (Every morning)

Aaaa aa  aaaa  (Every morning there's a halo hanging )


Esta parte é assim  

   D/abafado  E/solta  A/abafado   F#/solta  D/abafado   E/solta 
e-------------0--------------------2---------------------0---------
B-------------0--------------------2---------------------0---------
G--7-7-7-7----1--------------------3---------7-7-7-7-----1---------  
D--7-7-7-7----2--------7-7-7-7-----4---------7-7-7-7-----2--------- 
A--5-5-5-5----2--------7-7-7-7-----4---------5-5-5-5-----2---------
E----------------------5-5-5-5-----2-------------------------------

D                     E 
She always rights the wrong
    A    F#
for me, baby
D                     E
She always rights the wrong
    A    
for me

                        D
Every morning there's a halo hanging
         A
from the corner of my
                        D9 D D9 
girlfriend's four post bed
A
I know it's not mine
     D
but I'll see I can use it
        A                      D9 D D9
for the weekend or a one night stand

A            D D9
 Every morning
A                               D9 D D9             
 Every morning there's a halo hanging
A             D D9  
 Every morning
A                    D9 D D9        
there's a halo hanging
A
 Every morning


D  = xxx232      
D9 = xxx23x
A  = xx222x   
F# = 244322
E  = x221xx
 

Esta musica foi tirada da versão acústica, com dois violão fica 10zzzzz.    
Para tocar esta musica recomendo escutar ela primeiro, mais quem tem 
ela na mente vai sabe tocar é muito fácil.
Qualquer duvida mande me e-mails
Ass: Edson C$           
115 reproducciones
    • ½ Tom
    • A
    • Bb
    • B
    • C
    • Db
    • D
    • Eb
    • E
    • F
    • F#
    • G
    • Ab
  • Adicionar à lista

    0 comentarios

    Mostrar mais comentários

    ¿Conseguiste tocar?

    1 Tocaron 0 Ainda não

    Grave um vídeo tocando Every Morning (Acustic) e mande pra gente!

    00:00 / 00:00
    outros vídeos desta música
    repetir qualidade Automático
    Outros vídeos desta música
    00:00 / 00:00
    Automático
    OK