Cifra Club

Under The Sun

Sugar Ray

Cifrado: Principal (guitarra y guitarra eléctrica)
tono: Ab
Intro:Bbm Ebm Ab Db 4X

Bbm     Ebm     Ab      Db   
e|1     e|2     e|x     e|1
B|2     B|4     B|1     B|2
G|3     G|3     G|1     G|1
D|3     D|1     D|1     D|x
A|1     A|x     A|x     A|x
E|x     e|x     E|x     E|x

na terceira vez entra o solo

Durante o verso eh a mesma base da intro

SOLO:
e|-----------------------------------------------------------------------------------------
B|-----------------------------------------------------------------------------------------
G|-----------------------------------------------------1-----------------------------------
D|---4/6-4-3-4--------2/3-2/3-1---4/6-4-3-4--------2/3---2/3-1---4/6-4-3-4-----------------
A|-------------1--1-4-----------------------1--1-4-------------------------1---------------
E|-----------------------------------------------------------------------------------------

REFRÃO:
(Bb5 Eb5 Ab5 Db5)3x
Bb Eb5 Ab5

PONTE:
Db B7+ Ab Db 
e|---------------------------------------------------------------
B|----6--------4---4----1----------6-----------------------------
G|--6----6--3--------1-----1----6---6----------------------------
D|-----6--------4--------1----6----------------------------------
A|---------------------------------------------------------------
E|---------------------------------------------------------------

repete a ponte varias vezes até chegar a vocalização "nanara nanara"
00:00 / 00:00
Otros videos de esta canción
Repetir
Otros videos de esta canción
Composición de Don Gilmore / Mark McGrath / Murphy Karges
Colaboración y revisión:
  • Carlos Santos
64 vistas
    • ½ Tono
    • A
    • Bb
    • B
    • C
    • Db
    • D
    • Eb
    • E
    • F
    • F#
    • G
    • Ab
  • Agregar a la lista

    0 comentarios

    Ver todos los comentarios

    ¿Lograste tocar?

    0 Tocaron 0 Aún no

    ¡Graba un video tocando Under The Sun y envíanoslo!

    00:00 / 00:00
    OK