Cifra Club

Do It Alone

Sugarcult

Cifrado: Principal (guitarra y guitarra eléctrica)
Selo Cifra Club: esta cifra foi revisada para atender aos critérios oficiais da nossa Equipe de Qualidade.
tono: Db
Riff 1:
e|-----------------------------------|
B|-----------------------------------|
G|--6-6-6-6-6-6-6-6-5-5-5-5-5-5-5-5--|
D|--6-6-6-6-6-6-6-6-6-6-6-6-6-6-6-6--|  2x
A|-----------------------------------|
E|-----------------------------------|


Hello                                            \
Can I say that there's something wrong            |
with this place?                                  |  riff 1
I got time just to waste if you would be          |
my new escape So then I say                      /  

 C#
"can't find a lover"
                      G#
Well there's no other way of pulling me under
                    C#
Cause it's gotta be fate if we're under the covers
               G#
It's all gonna be a-ok, a-ok

C#              G#
I don't want to do it alone

I'm beggin' you
F#              G#      
I don't want to do it, do it, do this all


alone We can dance in your bedroom with no romance     \
I got time just to waste if you would be                |  riff 1
my new escape So then you say                          /

C#                               G#
won't be another"But you give it away
                                              C#                  
cause you want to discover That it's gotta be fate
                                         G#
if we're under the covers It's all gonna be a-ok, a-ok

C#              G#
I don't want to do it alone

I'm beggin' you
F#              G#
I don't want to do it alone
            
Tell you what
C#              G#
I don't want to do it alone

I'm beggin' you
F#              G#
I don't want to do it, do it, do this all

C# G# F# G# 2x

Bridge/Solo
e|------------------------------------------------------------------------------|
B|------------------------------------------------------------------------------|
G|--6-6-6-6-8-8-8-8-10-10-10-10-8-8-8-8-11-11-11-11-10-10-10-10-8-8-8-8-6-6-6-6-|
D|--x-x-x-x-x-x-x-x--x--x--x--x-x-x-x-x--x--x--x--x--x--x--x--x-x-x-x-x-x-x-x-x-|
A|--4-4-4-4-6-6-6-6--8--8--8--8-6-6-6-6--9--9--9--9--8--8--8--8-6-6-6-6-4-4-4-4-|
E|------------------------------------------------------------------------------|

e|------------------------------------------------------------------------------|
B|------------------------------------------------------------------------------|
G|--6-6-6-6-8-8-8-8-10-10-10-10-8-8-8-8-6-6-6-6-11-11-11-11-10-10-10-10-8-8-8-8-|
D|--x-x-x-x-x-x-x-x--x--x--x--x-x-x-x-x-x-x-x-x--x--x--x--x--x--x--x--x-x-x-x-x-|
A|--4-4-4-4-6-6-6-6--8--8--8--8-6-6-6-6-4-4-4-4--9--9--9--9--8--8--8--8-6-6-6-6-|
E|------------------------------------------------------------------------------|

e|--------------------------------------------------------------------------------------|
B|--------------------------------------------------------------------------------------|
G|--10-10-10-10-8-8-8-8-10-10-10-10-13-13-13-13-11-11-11-11-10-10-10-10-8-8-8-8-6-6-6-6-|
D|---x--x--x--x-x-x-x-x--x--x--x--x--x--x--x--x--x--x--x--x--x--x--x--x-x-x-x-x-x-x-x-x-|
A|---8--8--8--8-6-6-6-6--8--8--8--8-11-11-11-11--9--9--9--9--8--8--8--8-6-6-6-6-4-4-4-4-|
E|--------------------------------------------------------------------------------------|

                                         one,  two,  three,  four,  four,  three,  two,  one
e|------------------------------------------------------------------------------------------|
B|------------------------------------------------------------------------------------------|
G|--13-13-13-13-11-11-11-11-10-10-10-10-8-8-8-8-8-8-8-8-10-10-10-10-13-13-13-13-17-17-17-17-|
D|---x--x--x--x--x--x--x--x--x--x--x--x-x-x-x-x-x-x-x-x--x--x--x--x--x--x--x--x--x--x--x--x-|
A|--11-11-11-11--9--9--9--9--8--8--8--8-6-6-6-6-6-6-6-6--8--8--8--8-11-11-11-11-15-15-15-15-|
E|------------------------------------------------------------------------------------------|

C#
I don't want to do it alone

I'm beggin' you

I don't want to do it alone
C#
I'm beggin' you
C#
I'm beggin' you
C#
I'm beggin' you
C#
I'm beggin' you

C#              G#
I don't want to do it alone

I'm beggin' you
F#              G#
I don't want to do it alone
            
Tell you what
C#              G#
I don't want to do it alone

I'm beggin' you
F#              G#
I don't want to do it, do it, do this all

C#                                          G#
alone Can I say that there's something wrong
                          F#                           G#
with this place? I got time just to waste if you would be 
                        C#
my new escape So then I say 
                                          G#
"can't find a lover" Well there's another way
                                        A#
of pulling me under Cause it's gotta be fate

if we're under the covers
              F#
It's all gonna be a-ok

It's all gonna be a-ok, a-ok
C#
I don't want to do it alone
Otros videos de esta canción
    40 exhibiciones
      • ½ Tono
      • A
      • Bb
      • B
      • C
      • Db
      • D
      • Eb
      • E
      • F
      • F#
      • G
      • Ab
    • Agregar a la lista

    Afinação da cifra

    Afinador online

      Ops (: Contenido disponible solo en portugués.
      OK