Cifra Club

Grab The Devil By The Horns

Sum 41

Cifrado: Principal (guitarra y guitarra eléctrica)
Selo Cifra Club: esta cifra foi revisada para atender aos critérios oficiais da nossa Equipe de Qualidade.
tono: D



e|-0-2-3-5-3-2-0-------------------------------------------------------------|X4
B|--------------3------------------------------------------------------------|
G|---------------------------------------------------------------------------|
D|---------------------------------------------------------------------------|
A|---------------------------------------------------------------------------|
E|---------------------------------------------------------------------------|
 
  Guitar 1
e|-0-2-3-5-3-2-0-------------------------------------------------------------|X3
B|--------------3------------------------------------------------------------|
G|---------------------------------------------------------------------------|
D|---------------------------------------------------------------------------|
A|---------------------------------------------------------------------------|
E|---------------------------------------------------------------------------|
  Guitar 2
e|-7-5-7-8-7-5---------------------------------------------------------------|X3
B|------------7-5------------------------------------------------------------|
G|---------------------------------------------------------------------------|
D|---------------------------------------------------------------------------|
A|---------------------------------------------------------------------------|
E|---------------------------------------------------------------------------|

Guitar 1
e|---------------------------------------------------------------------------|
B|---------------------------------------------------------------------------|
G|-------4-------------------------------------------------------------------|
D|-5-4-2-4-4-5-2-------------------------------------------------------------|
A|-5-4-2-2-4-5-2-------------------------------------------------------------|
E|-3-2-0---2-3-0-------------------------------------------------------------|

 Guitar 2                 
e|--------------------------------------------------------------3-2-0-7-2-3-0|
B|---------------------------------------------------------------------------|
G|---------------------------------------------------------------------------|
D|---------------------------------------------------------------------------|
A|---------------------------------------------------------------------------|
E|---------------------------------------------------------------------------|
 
  Guitar 1
e|---------------------------------------------------------------------------|X2
B|---------------------------------------------------------------------------|
G|--9----------------7-----------------5----------------------4--------------|
D|--9----------------7-----------------5----------------5-2-4-4-4-5-2--------|
A|--7-777-777-777-7--5-555-555-555--5--3-333-333-333-3--5-2-4-2-4-5-2--------|
E|------------------------------------------------------3-0-2---2-3-0--------|
     |     p.m      |  |    p.m      |   |     p.m    |
 
  Guitar 2                 
e|--------------------------------------------------------------3-2-0-7-2-3-0|X2
B|---------------------------------------------------------------------------|
G|---------------------------------------------------------------------------|
D|---------------------------------------------------------------------------|
A|---------------------------------------------------------------------------|
E|---------------------------------------------------------------------------|

  Guitar 1
e|---------------------------------------------------------------------------|X2
B|---------------------------------------------------------------------------|
G|--9----------------7-----------------5----------------------4--------------|
D|--9----------------7-----------------5----------------5-2-4-4-4-5-2--------|
A|--7-777-777-777-7--5-555-555-555--5--3-333-333-333-3--5-2-4-2-4-5-2--------|
E|------------------------------------------------------3-0-2---2-3-0--------|
     |     p.m      |  |    p.m      |   |     p.m    |
 
  Guitar 2
e|-0-2-3-5-3-2-0---0-2-3-5-3-2-0--0-2-3-5-3-2-0----3-2-0-7-2-3-0-------------|X2
B|--------------3---------------3--------------3-----------------------------|
G|---------------------------------------------------------------------------|
D|---------------------------------------------------------------------------|
A|---------------------------------------------------------------------------|
E|---------------------------------------------------------------------------|

e|---------------------------------------------------------------------------|X2
B|---------------------------------------------------------------------------|
G|-----4---------------------------------------------------------------------|
D|-5-4-4-5---------2----------2----------2----------2----------2-------------|
A|-5-4-2-5---------2----------2----------2----------2----------2-------------|
E|-3-2---3-0-0-0-0-0--0-0-0-0-0--0-0-0-0-0--0-0-0-0-0--0-0-0-0-0-------------|
           |  p.m |  |   p.m |  |  p.m  |  |  p.m  |  |  p.m  |

  Guitar 1
e|---------------------------------------------------------------------------|
B|-8-8-8-9-8--8-8-----8-8-8-9-8--8-8-----------------------------------------|
G|-x-x-x-x-x--x-x-----x-x-x-x-x--x-x-----------------------------------------|
D|-5-5-5-6-5--5-5-----5-5-5-6-5--5-5-----------------------------------------|
A|---------------------------------------------------------------------------|
E|---------------------------------------------------------------------------|
  
  Guitar 2
e|---------------------------------------------------------------------------------------|
B|---------------------------------------------------------------------------------------|
G|-----4---------------------------------------------------------------------------5-----|
D|-5-4-4-5-----------2-----------2-----------2--4-5-4-----------2-----------2--5-4-5-5-2-|
A|-5-4-2-5-----------2-----------2-----------2--4-5-4-----------2-----------2--5-4-3-5-2-|
E|-3-2---3--0-0-0-0--0--0-0-0-0--0--0-0-0-0--0--2-3-2--0-0-0-0--0--0-0-0-0--0--3-2---3-0-|
           |  p.m  |   |  p.m  |   |  p.m  |

===============================================================================
Otros videos de esta canción
    5.477 exhibiciones
      • ½ Tono
      • A
      • Bb
      • B
      • C
      • Db
      • D
      • Eb
      • E
      • F
      • F#
      • G
      • Ab
    • Agregar a la lista

    Afinación de cifrado

    Afinador online

      OK