Cifra Club

Aprenda

Motivation

Sum 41

Tablatura: Principal (guitarra)
Tom: E
Order: 
Riff 1 
Riff 2 
Riff 3 
Riff 4 
Riff 2 
Riff 3 
Riff 4 
Riff 5 
Riff 6
Riff 7 
Riff 2 
End Chord 

Riff 1: Play 5x 
-|---------------------------------------------------------------------------- 
-|---------------------------------------------------------------------------- 
-|---------------------------------------------------------------------------- 
-|--2--2---------------------------------------------------------------------- 
-|--2--2---------------------------------------------------------------------- 
-|--0--0---------------------------------------------------------------------- 

Riff 2: Play 2x then 2nd half once 
-|------------------------------------------------------------------------------
-|------------------------------------------------------------------------------
-|------------------------------------------------------------------------------
-|-2-2-2--6-7--7-6--2-2-2--6-7--7-6---2-2-2--6-7---7-6--9-9-9--7--7-6-----------
-|-2-2-2--6-7--7-6--2-2-2--6-7--7-6---2-2-2--6-7---7-6--9-9-9--7--7-6-----------
-|-0-0-0--4-5--5-4--0-0-0--4-5--5-4---0-0-0--4-5---5-4--7-7-7--5--5-4----------- 

Riff 3: Play 4x 
-|---------------------------------------------------------------------------- 
-|---------------------------------------------------------------------------- 
-|---------------------------------------------------------------------------- 
-|--x-x-2---x-x-6---x-x-7---x-x-9--------------------------------------------- 
-|--x-x-2---x-x-6---x-x-7---x-x-9--------------------------------------------- 
-|--x-x-0---x-x-4---x-x-5---x-x-7--------------------------------------------- 

Riff 4: 
-|---------------------------------------------------------------------------- 
-|---------------------------------------------------------------------------- 
-|---------------------------------------------------------------------------- 
-|--9--9--9--999--9--9--9----4--4--4--444--4--4--4----9--9--9--999--9--9--9--- 
-|--9--9--9--999--9--9--9----4--4--4--444--4--4--4----9--9--9--999--9--9--9--- 
-|--7--7--7--777--7--7--7----2--2--2--222--2--2--2----7--7--7--777--9--7--7--- 

-|---------------------------------------------------------------------------- 
-|---------------------------------------------------------------------------- 
-|---------------------------------------------------------------------------- 
-|--7--7--7--777--7--7--7----7------------777777------------------------------ 
-|--7--7--7--777--7--7--7----7------------777777------------------------------ 
-|--5--5--5--555--5--5--5----5------------555555------------------------------ 

Aqui repete o riff 2,Toque 2 x
-|------------------------------------------------------------------------------
-|------------------------------------------------------------------------------
-|------------------------------------------------------------------------------
-|-2-2-2--6-7--7-6--2-2-2--6-7--7-6---2-2-2--6-7---7-6--9-9-9--7--7-6-----------
-|-2-2-2--6-7--7-6--2-2-2--6-7--7-6---2-2-2--6-7---7-6--9-9-9--7--7-6-----------
-|-0-0-0--4-5--5-4--0-0-0--4-5--5-4---0-0-0--4-5---5-4--7-7-7--5--5-4----------- 

Riff 6 play 4x then 2nd part once
-|---------------------------|------------------------------------------------
-|---------------------------|------------------------------------------------
-|---------------------------|-----------------44444444--222222---------------
-|-2-2-----------------------|-9----2--9--2----44444444--222222--444444444444-
-|-2-2--5-4-2----------2-2---|-9----2--9--2----22222222--000000--444444444444-
-|-0-0--------5-4-0-5--------|-7----0--7--0----------------------222222222222-

Riff 7: Play a lot listen to
song 
-|---------------------------------------------------------------------------- 
-|---------------------------------------------------------------------------- 
-|--------4-4----------------------------------------------------------------- 
-|--2-2---4-4---4-4---7-7----------------------------------------------------- 
-|--2-2---2-2---4-4---7-7----------------------------------------------------- 
-|--0-0---------2-2---5-5----------------------------------------------------- 

End Chord 
-|-----|---------------------------------------------------------------------- 
-|-----|---------------------------------------------------------------------- 
-|-----|---------------------------------------------------------------------- 
-|--2--|---------------------------------------------------------------------- 
-|--2--|---------------------------------------------------------------------- 
-|--0--|---------------------------------------------------------------------- 

------------------------------------------------------------------------------- 
Compositor Deryck Whibley / Greig Nori
Colaboración y revision:
  • João Cavalcanti
545 reproducciones
    • ½ Tom
    • A
    • Bb
    • B
    • C
    • Db
    • D
    • Eb
    • E
    • F
    • F#
    • G
    • Ab
  • Adicionar à lista

    0 comentarios

    Mostrar mais comentários

    ¿Conseguiste tocar?

    5 Tocaron 0 Ainda não

    Grave um vídeo tocando Motivation e mande pra gente!

    00:00 / 00:00
    outros vídeos desta música
    repetir qualidade Automático
    Outros vídeos desta música
    00:00 / 00:00
    Automático

    Cifra Club Pro

    Aproveite o Cifra Club com benefícios exclusivos e sem anúncios
    7 dias grátis
    Cifra Club Pro
    Aproveite o Cifra Club com benefícios exclusivos e sem anúncios
    7 dias grátis
    OK