Cifra Club

Aprenda

Never There

Sum 41

Tablatura: Principal (guitarra)
Tom: Bm
[Intro] Bm  G  D  A

[Primeira Parte]

Bm
Do you think about me cause
G                           D
I don't have any doubt you must
A
In this life
     Bm
Even though you're never there, I didn't
G                       D
Feel you disappear from sight
           A
You did it well

[Refrão]

A
And now
Bm                  G                 D
You and I share the same life missing out
A                Bm
So the story goes
                 G                         D
That we're left, we're stuck with a broken house
   A           Bm
I know that if I
  G       D          A       Bm
I had the chance I'd let you know
       G     D           A      Bm
That I understand I've let you go

[Segunda Parte]

        Bm
I don't need you by my side
           G
I think by now
                  D
I'm doing fine myself
      A
On my own
      Bm
And I feel you time to time
          G                     D
like your sending outta sign I can tell 
          A
You not alone

[Refrão]

        Bm                  G                 D
Because You and I share the same life missing out
A            Bm
So the story goes
                       G                   D
That we're left, we're stuck with a broken house
  A         Bm
I know that if the
    G        D           A       Bm
The chance appears I'd have no fears
      G      D         A        Bm
We both share pain, we feel the same

[Solo]

  Bm      A       G            D                   A              
E|-------------------------------------------------------------|
B|-------------------------------------------------------------|
G|-4-4-4-4-6-6-6-6-7-7-6-7--9-9-11-7-7-6-7--9-9-11-6-6-7-7-9-9-|
D|-x-x-x-x-x-x-x-x---------------------------------------------|
A|-2-2-2-2-4-4-4-4---------------------------------------------|
E|-------------------------------------------------------------|

  Bm      A       G            D                   A              
E|-------------------------------------------------------------|
B|-------------------------------------------------------------|
G|-4-4-4-4-6-6-6-6-7-7-6-7--9-9-11-7-7-6-7--9-9-11-6-6-7-7-9-9-|
D|-x-x-x-x-x-x-x-x---------------------------------------------|
A|-2-2-2-2-4-4-4-4---------------------------------------------|
E|-------------------------------------------------------------|

   Bm      A/C#    Em                  G
E|---------------------10-7--------------|
B|-------------------8------10br-8-7-----|
G|-4-4-4-4-6-6-6-6-7-----------------9-7-|
D|-x-x-x-x-x-x-x-x-----------------------|
A|-2-2-2-2-4-4-4-4-----------------------|
E|---------------------------------------|

[Refrão]

        Bm                  G                 D
And now you and I share the same life missing out
A            Bm
So the story goes
                       G                   D
That we're left, we're stuck with a broken house
  A         Bm
I know that if I
  G       D          A       Bm
I had the chance I'd let you know
       G     D           A      Bm
That I understand I've let you go

[Refrão]

        Bm                  G            D
You and I share the same life missing out
A            Bm
So the story goes
                       G                   D
That we're left, we're stuck with a broken house
  A         Bm
I know that if the
    G        D           A       Bm
The chance appears I'd have no fears
      G      D         A        Bm
We both share pain, we feel the same

( Bm  G  D  A )
( Bm  G  D  A )
( Bm  G  D  A )
( Bm  G  D  A )
Compositor Deryck Whibley
Colaboración y revision:
  • Alan Resende
56 reproducciones
    • ½ Tom
    • Am
    • Bbm
    • Bm
    • Cm
    • C#m
    • Dm
    • Ebm
    • Em
    • Fm
    • F#m
    • Gm
    • G#m
  • Adicionar à lista

    0 comentarios

    Mostrar mais comentários

    ¿Conseguiste tocar?

    0 Tocaron 0 Ainda não

    Grave um vídeo tocando Never There e mande pra gente!

    00:00 / 00:00
    outros vídeos desta música
    repetir qualidade Automático
    Outros vídeos desta música
    00:00 / 00:00
    Automático
    OK