Cifra Club

Aprenda

Over My Head

Sum 41

Tablatura: Principal (guitarra)
tono: G
KEY

7 - play the 7, palm muted
.

*7 - play the 7, natural harmonics

INTRO
e-------------------------------------|
B-------------------------------------|
G-------------------------------------|
D------5---9---9--------7--------4----|
A--7-7---7---7---7--9-9---5--5-5---5--|
E--.-.---.---.---.--.-.---.--.-.---.--|

e----------------------------*7----------|
B-------------------------------*7-------|
G----------------------------------*7----|
D------5---9---9--------7-------------*7-|
A--7-7---7---7---7--9-9---5--------------|
E--.-.---.---.---.--.-.---.--------------|

e----------------------------------|
B----------------------------------|
G--9999--12121212--11111111--7777--|
D--xxxx---x-x-x-x---x-x-x-x--xxxx--| (x4)
A--7777--10101010---9-9-9-9--5555--|
E----------------------------------|

VERSE ("What happened to you...")
e-------------------------------------|
B-------------------------------------|
G-------------------------------------|
D------5---9---9--------7--------4----| (x4)
A--7-7---7---7---7--9-9---5--5-5---5--|
E--.-.---.---.---.--.-.---.--.-.---.--|

e----------------------------------|
B----------------------------------|
G----------------------------------|
D----2--2-2--4--4-4--5-9-9---5-9-9-|
A--33-33-3-55-55-5-77-7-7-777-7-7--|
E--..-..-.-..-..-.-..-.-.-...-.-.--|

e---------------------------------*7-------| <-- those harmonics
B-----------------------------------*7-----|     are played very
G-------------------------------------*7---|     subtly before
D----2--2-2--4--4-4---------------------*7-|     the transition
A--33-33-3-55-55-5--2222222222222----------|     to the chorus
E--..-..-.-..-..-.--0000000000000----------|
                    .............

CHORUS ("...Over my head...")
e-----------------------|
B-----------------------|
G-------5555------7777--|
D--2222-5555-5555-7777--| (x2)
A--2222-3333-5555-5555--|
E--0000------3333-------|

AFTER CHORUS
e-------------------------|
B-------------------------|
G--12--14-14--12-12--1111-|
D--xx--xx-xx--xx-xx--x-x--| (x2)
A--10--12-12--10-10--9-9--|
E-------------------------|

VERSE

CHORUS

BREAK ("...This came all before...")
e-------------------------|
B-------------------------|
G--------5----------------|
D--2-----5-----5-----5----| (x4)
A--2-----3-----5-----5----|
E--0-----------3-----2----|

e---------------------------------------|
B---------------------------------------|
G--12--11--14--12---16--12--11-12-14-16-|
D--xx---x--xx--xx---xx--xx---x-xx-xx-xx-| (x4)
A--10---9--12--10---14--10---9-10-12-14-|
E---------------------------------------|
**The 1st two times are played instrumental
  and the last two are under lyrics.  The 4th
  time, hold out the last octave, until...

CHORUS

ENDING ("...Over my head, over my head, etc...")
e--------------------|
B--------------------|
G-----5-5-------7-7--|
D--2--5-5--5-5--7-7--| (x4)
A--2--3-3--5-5--5-5--|
E--0-------3-3-------|

(End on the last D power chord, when he yells "Alright!")

Lyrics:

What happened to you
You played the victim for so long now in this game
What I thought was true
Is made of fiction and I'm following the same

But if I try to make sense of this mess I'm in
I'm not sure where I should begin
I'm fallin'
I'm fallin'

Now I'm in over my head
for something I said
Completely misread
I'm better off dead

And now I can see
I think it could be
This hypocrisy is beginning to get to me

It's none of my concern
What is luck to me I don't believe in fame
I guess you never heard
I bet the makers they don't even know your name

But if I had to say goodbye to leave this hell
I think my time has served me well
I'm fallin'
I'm fallin'

[Chorus]

This came all before
Those who suffer more
I'm too awake for this to be a nightmare

What's with my disgrace
I lost the human race
No one left for this to blow up in you face

Who said it was so easy to put back all of these pieces
Who said it was so easy to put back all of these pieces

[Chorus]

Over my head
Better off dead

Over my head
Better off dead
 
Composição de Deryck Whibley / Greig Nori / Steve Jocz
Colaboración y revision:
  • Felipe
514 reproducciones
  • Simplificar cifra
    • ½ Tono
    • A
    • Bb
    • B
    • C
    • Db
    • D
    • Eb
    • E
    • F
    • F#
    • G
    • Ab
  • Adicionar à lista

    0 comentarios

    Ver todos os comentários

    ¿Conseguiste tocar?

    3 Tocaram 0 Ainda não

    Grave um vídeo tocando Over My Head e nos envie!

    00:00 / 00:00
    outros vídeos desta música
    repetir qualidade Automático
    Outros vídeos desta música
    00:00 / 00:00
    Automático
    OK