Enviar cifraEntrar

Pieces

Sum 41

Acordes: Principal
reproducciones 9.699
Tono: F
(intro) Dm Bb F C

(riff 1)

E |-1-1-1-1-1---------------------------------------
B |-3-3-3-3-3---3-3-3-3-3---------------1-1-1-1-1---
G |-2-2-2-2-2---3-3-3-3-3---2-2-2-2-2---------------
D |-0-0-0-0-0---3-3-3-3-3---3-3-3-3-3---2-2-2-2-2---
A |-------------1-1-1-1-1---3-3-3-3-3---3-3-3-3-3---
E |-------------------------1-1-1-1-1---------------


(parte inicial antes de entrar a batera)
(riff 2)

          Bb                F               C
E |--------------------------------------------------------------------|
B |----------10-----------------10--------------5------------5---------|
G |-10-10-10----10-10--10-10-10-----(6x)--5-5-5---5-5--5-5-5---5--(1x)-|
D |--------------------------------------------------------------------|2x
A |--------------------------------------------------------------------|
E |--------------------------------------------------------------------|


(quando entrar a batera - 2ª guitarra)

         Dm               Bb              F             C
E |--------------------------------------------------------------|
B |-10-10-10-10-10--11-11-11-11-11--10-10-10-10-10--5-5-5-5-5----|
G |-10-10-10-10-10--10-10-10-10-10--10-10-10-10-10--5-5-5-5-5----|
D |--------------------------------------------------------------|2X
A |--------------------------------------------------------------|
E |--------------------------------------------------------------|


         Bb                   F                C
E |---------------------------------------------------------------|
B |-11-11-11-11-11-11--10-10-10-10-10-10--13-13-13-13-13-13-------|
G |-10-10-10-10-10-10--10-10-10-10-10-10--13-13-13-13-13-13-------|
D |---------------------------------------------------------------|2x
A |---------------------------------------------------------------|
E |---------------------------------------------------------------|

 
(riff 1)
Dm                  Bb                  F
I tried to be perfect but nothing was worth it
        C                   Dm
I don´t belive it makes me real
                  Bb                  F
I thought it´d be easy but no one belives me
         C                 Bb
I meant all the things I said

(riff 2)
                         F
If you belive it´s in my soul
       C                     Bb
I´d say all the words that I know
                        F
just to see if it would show
         C                 Bb
that I´m trying to let you know
                                 Dm Bb F C
that I´m better off on my own   
     

e|-----------------
B|-----------------
G|-----------------
D|-----------------
A|------3-1-0---5--
E|--0-1-------3----


Dm                Bb
this place is so empty
                  F
my thought are so tempting
        C                  Dm
I don´t know how it got so bad
                   Bb                     F
sometimes it´s so crazy that nothing can save me
             C                Bb
but it´s the only thing that I have

                         F
If you belive it´s in my soul
     C                        Bb
I´d say all the words that I know
                        F
just to see if it would show
         C                   Bb
that I´m trying to let you know

that I´m better off on my own

( F Bb F Bb Dm C Bb F )


E |--------------------------------------------------------|
B |-10-10-10-11--10-10-10-11--10-10-10-11-13-13-13-13------|
G |-10-10-10-10--10-10-10-10--10-10-10-11-10-10-10-10------|
D |--------------------------------------------------------|2x
A |--------------------------------------------------------|
E |--------------------------------------------------------|


        Dm          C            Bb          F              A
E |-----------------------------------------------------|------------------------|
B |------13-----------13-----------13---------5---------|-8-8-8-10-8-8-8-10------|
G |-9/10----10--12-12----12--10-10----10--5-5---5--(2x)-|-9-9-9-9--9-9-9-9--(4X)-|
D |-----------------------------------------------------|------------------------|
A |-----------------------------------------------------|------------------------|
E |-----------------------------------------------------|------------------------|


Dm             Bb                   F
I tried be perfect it just wasn´t worth it
        C                 Dm
nothing could ever be so wrong
              Bb
it´s hard to belive me
              F
it never gets easy
        C               Bb
I guess I knew that all long

                         F
If you belive it´s in my soul
      C                      Bb
I´d say all the words that I know
                        F
just to see if it would show
         C                 Bb
that I´m trying to let you know
                          F
that I´m better off on my own
  • 1
  • 2
  • 3
  • 4
  • 5
  • 6
  • 7
  • 8
  • 9
  • 10
  • 11
  • 12
    Acordes para:
      Composición: Deryck Whibley / Greig NoriColaboración y revision:
      • scooby doo

      0 comentarios

        mostrar mas comentarios

        ¿Conseguiste tocar?

        41tocaron0aún no

        ¡Grave un vídeo tocando Pieces y envie para nosotros!

        00:00 / 00:00
        outros vídeos desta música
        repetirqualidadeautomática
        • automática
        Outro vídeos desta música
          00:00 / 00:00
          automática
          • automática
          Acordes para:guitarra
          dificuldadreproduccionescontribuciones
          4 versiones de Contrabajoreproduccionescontribuciones
          1 versión de Bateríareproduccionescontribuciones
          1 versión de Guitar Proformatodownloadscontribución
          1 versión de Partiturasformatodownloadscontribución
          cerrarplay/pause subir/bajar velocidad
            acordes
            cerrar
            OK
            Feedback