Notificações Amigos pendentes

      Sum 41

      Pieces

      9.357 reproducciones
      Tono: F
      (intro) Dm Bb F C
      
      (riff 1)
      
      E |-1-1-1-1-1---------------------------------------
      B |-3-3-3-3-3---3-3-3-3-3---------------1-1-1-1-1---
      G |-2-2-2-2-2---3-3-3-3-3---2-2-2-2-2---------------
      D |-0-0-0-0-0---3-3-3-3-3---3-3-3-3-3---2-2-2-2-2---
      A |-------------1-1-1-1-1---3-3-3-3-3---3-3-3-3-3---
      E |-------------------------1-1-1-1-1---------------
      
      
      (parte inicial antes de entrar a batera)
      (riff 2)
      
                Bb                F               C
      E |--------------------------------------------------------------------|
      B |----------10-----------------10--------------5------------5---------|
      G |-10-10-10----10-10--10-10-10-----(6x)--5-5-5---5-5--5-5-5---5--(1x)-|
      D |--------------------------------------------------------------------|2x
      A |--------------------------------------------------------------------|
      E |--------------------------------------------------------------------|
      
      
      (quando entrar a batera - 2ª guitarra)
      
               Dm               Bb              F             C
      E |--------------------------------------------------------------|
      B |-10-10-10-10-10--11-11-11-11-11--10-10-10-10-10--5-5-5-5-5----|
      G |-10-10-10-10-10--10-10-10-10-10--10-10-10-10-10--5-5-5-5-5----|
      D |--------------------------------------------------------------|2X
      A |--------------------------------------------------------------|
      E |--------------------------------------------------------------|
      
      
               Bb                   F                C
      E |---------------------------------------------------------------|
      B |-11-11-11-11-11-11--10-10-10-10-10-10--13-13-13-13-13-13-------|
      G |-10-10-10-10-10-10--10-10-10-10-10-10--13-13-13-13-13-13-------|
      D |---------------------------------------------------------------|2x
      A |---------------------------------------------------------------|
      E |---------------------------------------------------------------|
      
       
      (riff 1)
      Dm                  Bb                  F
      I tried to be perfect but nothing was worth it
              C                   Dm
      I don´t belive it makes me real
                        Bb                  F
      I thought it´d be easy but no one belives me
               C                 Bb
      I meant all the things I said
      
      (riff 2)
                               F
      If you belive it´s in my soul
             C                     Bb
      I´d say all the words that I know
                              F
      just to see if it would show
               C                 Bb
      that I´m trying to let you know
                                       Dm Bb F C
      that I´m better off on my own   
           
      
      e|-----------------
      B|-----------------
      G|-----------------
      D|-----------------
      A|------3-1-0---5--
      E|--0-1-------3----
      
      
      Dm                Bb
      this place is so empty
                        F
      my thought are so tempting
              C                  Dm
      I don´t know how it got so bad
                         Bb                     F
      sometimes it´s so crazy that nothing can save me
                   C                Bb
      but it´s the only thing that I have
      
                               F
      If you belive it´s in my soul
           C                        Bb
      I´d say all the words that I know
                              F
      just to see if it would show
               C                   Bb
      that I´m trying to let you know
      
      that I´m better off on my own
      
      ( F Bb F Bb Dm C Bb F )
      
      
      E |--------------------------------------------------------|
      B |-10-10-10-11--10-10-10-11--10-10-10-11-13-13-13-13------|
      G |-10-10-10-10--10-10-10-10--10-10-10-11-10-10-10-10------|
      D |--------------------------------------------------------|2x
      A |--------------------------------------------------------|
      E |--------------------------------------------------------|
      
      
              Dm          C            Bb          F              A
      E |-----------------------------------------------------|------------------------|
      B |------13-----------13-----------13---------5---------|-8-8-8-10-8-8-8-10------|
      G |-9/10----10--12-12----12--10-10----10--5-5---5--(2x)-|-9-9-9-9--9-9-9-9--(4X)-|
      D |-----------------------------------------------------|------------------------|
      A |-----------------------------------------------------|------------------------|
      E |-----------------------------------------------------|------------------------|
      
      
      Dm             Bb                   F
      I tried be perfect it just wasn´t worth it
              C                 Dm
      nothing could ever be so wrong
                    Bb
      it´s hard to belive me
                    F
      it never gets easy
              C               Bb
      I guess I knew that all long
      
                               F
      If you belive it´s in my soul
            C                      Bb
      I´d say all the words that I know
                              F
      just to see if it would show
               C                 Bb
      that I´m trying to let you know
                                F
      that I´m better off on my own
        Composición: Deryck Whibley / Greig NoriColaboración y revision:
        • scooby doo

        Comentarios 17

        140 .
        • kelvi.queiros kelvi.queiros: Em 18/03/2015 12:28

          Easy!

        • Airton Airton: Em 05/11/2013 20:08

          CARA ATE A MINHA. AVÓ TOCA ESSA MUSICA SEM SABER NADA. KKKKK

        • miguel.raabe miguel.raabe: Em 21/09/2013 00:44

          o solo ta errado

        • Castiel Castiel: Em 27/06/2013 20:15

          mermao ficou muito massssssa

        • gabiscoito gabiscoito: Em 20/10/2012 23:43

          e no refrão fica só pra baixo.

        • gabiscoito gabiscoito: Em 20/10/2012 23:43

          batida: \/ \/ /\ /\ \/ /\ \/

        • samucacqc samucacqc: Em 11/10/2012 15:17

          Acho q nao vey,na boa,essa musica e facil,video aula e para Crazy Train-Ozzy Osbourne,mas essa musica e so ouvir bem e fica facil de tocar!!

        • fabiano102030 fabiano102030: Em 09/10/2012 18:32

          FACIN-FACIN

        • anaavengeds anaavengeds: Em 05/02/2012 19:42

          ritmo - baixo baixo cima cima baixo baixo cima baixo cima. Toda nesse ritmo. (: espero ter ajudado. bjs

        • hugoflu1 hugoflu1: Em 07/12/2011 16:09

          a vtnc mermão porra pedir video aula pra essa musica quero ver trough the fire and flames do dragon force.

        140 cancelar

        ¿conseguiste tocar?

        • •••
        Rodrigo Brombatti251 visualizações
          ver cover de otras canciones »
          0:00 / 0:00

          Capitulos

            3 versões de guitarra dificuldad reproducciones contribuición y correción
            3 versões de guitarra eléctrica dificuldad reproducciones contribuición y correción
            3 versões de cavaco dificuldad reproducciones contribuición y correción
            3 versões de teclado dificuldad reproducciones contribuición y correción
            4 versões de contrabajo reproducciones contribuición y correción
            1 versão de batería reproducciones contribuición y correción
            1 versão de Guitar Proformatodownloadscontribuición
            1 versão de partiturasformatodownloadscontribuición
            play/pausefechar subir/bajar velocidad
            6ª cuerda E5ª cuerda A4ª cuerda D3ª cuerda G2ª cuerda B1ª cuerda E
              acordes
              publicidad
              cerrar
              ok